Song name
# A B C D E F G H I J K L M N O P Q R S T U V W X Y Z

Carter Burwell - In Bruges tab

Tabbed By G-DOGGY-DOG

Give me a Kwak!

Capo on 8

|------------|------------|------------|------------|------------|-------------|
|------------|------------|------------|------------|------------|-------------|
|----------0-|--------0-2-|------0-2-4-|--------2-5-|--------0-4-|----------2--|
|------2-4---|------4-----|------------|------4-----|------2-----|------1-4----|
|----2-------|----2-------|----2-------|----2-------|----2-------|----2--------|
|--0---------|--0---------|--0---------|--0---------|--0---------|--0----------|

|------------|---------------|
|------------|---------------|
|------------|---------------|
|------2-5-4-|------2---5p4--|
|----2-------|----2----------|
|--0---------|--0------------|
Tap to rate this tab
# A B C D E F G H I J K L M N O P Q R S T U V W X Y Z