Song name
# A B C D E F G H I J K L M N O P Q R S T U V W X Y Z

Carter Burwell - A Nova Vida tab

Intro! 

Guitar 1:

e|---5-------------|-----1-------1-0-|---0-------------|-----3----3----3-|
b|---5-------------|-----1-----------|---1-------------|-----3----3----3-|
g|---5-------------|-----2-----------|---0-------------|-----4----4----4-|
d|---7-------------|-----3-----------|---2-------------|-----5----5----5-|
a|---7-------------|---3-------------|-3---------------|-----3----3----3-|
E|-5---------------|-1---------------|-----------------|-3---3----3----3-|

Am                      F               C                       G

e|---5-------------|-----1-------1-0-|---0-------------|-----3----3----3-|
b|---5-------------|-----1-----------|---1-------------|-----3----3----3-|
g|---5-------------|-----2-----------|---0-------------|-----4----4----4-|
d|---7-------------|-----3-----------|---2-------------|-----5----5----5-|
a|---7-------------|---3-------------|-3---------------|-----3----3----3-|
E|-5---------------|-1---------------|-----------------|-3---3----3----3-|

Am                      F               C                       G


Guitar 2 

Start with open b string when guitar 1 first strums the entire G chord



e|-----------------|-----------------|-----------------|-----------------|
b|-----------------|-----------------|-----------------|-----0----1----3-|
g|-----------------|-----------------|-----------------|-----------------|
d|-----------------|-----------------|-----------------|-----------------|
a|-----------------|-----------------|-----------------|-----------------|
E|-----------------|-----------------|-----------------|-----------------|

e|-5----5-3----3--|-1---1----0---1--|-----------------|-----------------|
b|-----------------|-----------------|--5-----5--3--1--|--0---0---1---3--|
g|-----------------|-----------------|-----------------|-----------------|
d|-----------------|-----------------|-----------------|-----------------|
a|-----------------|-----------------|-----------------|-----------------|
E|-----------------|-----------------|-----------------|-----------------|

e|-5---5---3---3---|-1---1---0---1---|-----------------|-----------------|
b|-----------------|-----------------|--5-----5--3--1--|--0---0---1---3--|
g|-----------------|-----------------|-----------------|-----------------|
d|-----------------|-----------------|-----------------|-----------------|
a|-----------------|-----------------|-----------------|-----------------|
E|-----------------|-----------------|-----------------|-----------------|







Guitar 1 keeps playing these chords throughout the song. I like to strum like this/vary it:


e|---5-------5-5-5-|---1-------1-1-1-|---0-------0-0-0-|---3-------3-3-3-|
b|---5-------5-5-5-|---1-------1-1-1-|---1-------1-1-1-|---3-------3-3-3-|
g|---5-------5-5-5-|---2-------2-2-2-|---0-------0-0-0-|---4-------4-4-4-|
d|---7-------7-7-7-|---3-------3-3-3-|---2-------2-2-2-|---5-------5-5-5-|
a|---7-------7-7-7-|---3-------3-3-3-|-3-3-------3-3-3-|---5-------5-5-5-|
E|-5-5-------5-5-5-|-1-1-------1-1-1-|-----------------|-3-3-------3-3-3-|

Am                      F               C                       G
 
Lather, rinse, repeat. 

Guitar 2- plays that same riff for a while.

Then lots of things start to happen!

 For the first thing that happens I like to play: 

e|-0~--------3~----|-------------1~--|-----------------|-----------------|
b|-----------------|---1~------------|--3~-------------|-0~--------------|
g|-----------------|-----------------|-----------------|-----------------|
d|-----------------|-----------------|-----------------|-----------------|
a|-----------------|-----------------|-----------------|-----------------|
E|-----------------|-----------------|-----------------|-----------------|

Then later:
e|-0~--------3~----|-------------1~--|-----------------|-----------------|
b|-----------------|---1~------------|--5-----5--3--1--|--0---0---1---3--|
g|-----------------|-----------------|-----------------|-----------------|
d|-----------------|-----------------|-----------------|-----------------|
a|-----------------|-----------------|-----------------|-----------------|
E|-----------------|-----------------|-----------------|-----------------|

For the later part that sounds like high pitched voices I like to play
e|-8~--------------|-10~-------------|-12~-------------|-7~--------------|
b|-----------------|-----------------|-----------------|-----------------|
g|-----------------|-----------------|-----------------|-----------------|
d|-----------------|-----------------|-----------------|-----------------|
a|-----------------|-----------------|-----------------|-----------------|
E|-----------------|-----------------|-----------------|-----------------|


e|-15----13----12--|10~--------------|-15----13----12--|-8~--------------|
b|-----------------|-----------------|-----------------|-----------------|
g|-----------------|-----------------|-----------------|-----------------|
d|-----------------|-----------------|-----------------|-----------------|
a|-----------------|-----------------|-----------------|-----------------|
E|-----------------|-----------------|-----------------|-----------------|


Then for the pre pan flute/panflute part at the end I like to play:
e|-8~--------------|-10~-------------|-12~-------------|-15~-------------|
b|-----------------|-----------------|-----------------|-----------------|
g|-----------------|-----------------|-----------------|-----------------|
d|-----------------|-----------------|-----------------|-----------------|
a|-----------------|-----------------|-----------------|-----------------|
E|-----------------|-----------------|-----------------|-----------------|

e|-5--------8~-----|-1---------5~----|-0----------3~---|-3----------7~---|
b|-----------------|-----------------|-----------------|-----------------|
g|-----------------|-----------------|-----------------|-----------------|
d|-----------------|-----------------|-----------------|-----------------|
a|-----------------|-----------------|-----------------|-----------------|
E|-----------------|-----------------|-----------------|-----------------|

e|-5--------8~-----|-1---------5~----|-0----------3~---|-3----------7~---|
b|-----------------|-----------------|-----------------|-----------------|
g|-----------------|-----------------|-----------------|-----------------|
d|-----------------|-----------------|-----------------|-----------------|
a|-----------------|-----------------|-----------------|-----------------|
E|-----------------|-----------------|-----------------|-----------------|

e|-12---10-----8---|-7---8------7--5-|-0----------3~---|-3----------7~---|
b|-----------------|-----------------|-----------------|-----------------|
g|-----------------|-----------------|-----------------|-----------------|
d|-----------------|-----------------|-----------------|-----------------|
a|-----------------|-----------------|-----------------|-----------------|
E|-----------------|-----------------|-----------------|-----------------|

e|-5~--------------|-----------------|-----------------|-----------------|
b|-----------------|-----------------|-----------------|-----------------|
g|-----------------|-----------------|-----------------|-----------------|
d|-----------------|-----------------|-----------------|-----------------|
a|-----------------|-----------------|-----------------|-----------------|
E|-----------------|-----------------|-----------------|-----------------|

Tap to rate this tab
# A B C D E F G H I J K L M N O P Q R S T U V W X Y Z