Song name
# A B C D E F G H I J K L M N O P Q R S T U V W X Y Z

Carter Family - Wildwood Flower tab

Capo 3rd fret



E|--0--------------------------------|------------------------------|
B|--1--------------1-----------------|-------------1----------------|
G|--0-------0-0-0h2--2-3-2-0-0-0h2---|-----0-0-0h2---2-3-2-0-0-0h2--|
D|--2---2-3------------------------3-|-2-3-------------------------3|
A|--3--------------------------------|------------------------------|
E|--0--------------------------------|------------------------------|

E|-----------------------------------------|-------0-0---------------|
B|-----------------1--------------0--------|-----1----3-1-------1----|
G|---------0-0-0h2--2-3-2-0-0-0h2----------|-0h2--------0-0h2----2-0-|
D|-----2-3----------------------------2-2--|------------------------0|
A|----------------------------------3-----3|-------------------------|
E|-----------------------------------------|-------------------------|

E|-------------------------------------------------------------------|
B|--------------------------------------1p0h1------------------------|
G|--------------0-------------------0h2------------------------------|
D|--0h2-0h2-0h2---2-0-0-0h2-0---0h2----------------------------------|
A|----------------------------3--------------------------------------|
E|-------------------------------------------------------------------|
Tap to rate this tab
 
# A B C D E F G H I J K L M N O P Q R S T U V W X Y Z