Song name
# A B C D E F G H I J K L M N O P Q R S T U V W X Y Z

Carter Family - Jimmy Brown tab

E---0---0-0----0-0-0-0---0---------3-1-1-1---1--1-1-1-1-1-1|
B---1---1------1-1-1-----1---------0-0-0-0---0-------------|
G---0---0--2p0-0-0-0-----0---------0---------0-------------|
D-----2--------------------2h3-2-0-----------------0-3-2-0-|
A-3--------------------3-----------------------2-3---------|
E------------------------------------------3---------------|

E---1-1----------------------------------------------------|
B---0------------------------------------------------------|
G---0------------------------------------------------------|
D----------------------------------------------------------|
A-------0-2-3----------------------------------------------|
E-3--------------------------------------------------------|

Repeat until you are sick, and that's the song.
Tap to rate this tab
# A B C D E F G H I J K L M N O P Q R S T U V W X Y Z