Song name
# A B C D E F G H I J K L M N O P Q R S T U V W X Y Z

Cartoon Refugees - Running Away From You tab

Key
/=slide


intro 
|------------------------------------|
|------------------------------------|
|------------------------------------|
|9-9--77/9-9-9--77/9-9-9--77/9-9-9---|
|9-9--77/9-9-9--77/9-9-9--77/9-9-9---|
|7-7--55/7-7-7--55/7-7-7--55/7-7-7---|

intro 2
|------------------------------------|
|------------------------------------|
|------------------------------------|
|9-9/5-5-5-5-5/7-7-7-7-7-9/9-9-------|
|9-9/5-5-5-5-5/7-7-7-7-7-9/9-9-------|
|7-7/3-3-3-3-5/5-5-5-5-5-5/7-7-------|

intro 3
|------------------------------------|
|------------------------------------|
|------------------------------------|
|9-9--7/9-9-9--7/9-9-9--7/9-9-9------|
|9-9--7/9-9-9--7/9-9-9--7/9-9-9------|
|7-7--5/7-7-7--5/7-7-7--5/7-7-7------|

verse 
|------------------------------------|
|------------------------------------|
|9-9-9-9-9/7-7-7-7-7/9-9-9-9-9-------|
|9-9-9-9-9/7-7-7-7-7/9-9-9-9-9-------|
|7-7-7-7-7/5-5-5-5-5/7-7-7-7-7-------|
|------------------------------------|

|---------------------------------------|
|---------------------------------------|
|5-5-5-5-5/7-7-7-7-7/9-9-9-9-9/7-7-7-7-7|
|5-5-5-5-5/7-7-7-7-7/9-9-9-9-9/7-7-7-7-7|
|3-3-3-3-3/5-5-5-5-5/7-7-7-7-7/5-5-5-5-5|
|---------------------------------------|

|---------------------------------------|
|---------------------------------------|  
                        
                    
Tap to rate this tab
# A B C D E F G H I J K L M N O P Q R S T U V W X Y Z