Song name
# A B C D E F G H I J K L M N O P Q R S T U V W X Y Z

Cary Brothers - Alien tab

Cary Brothers - Alien
Standard Tuning
Capo 3

Em : [022000]
Am : [002210]
Fmaj7 : [033210]
C : [03201x]
G : [3X01x]

****************************************************
        INTRO + VERSE 1

RIFF 1
e|-0--0--3----------|
B|-----------3------|
G|---2--2--2---2----|
D|------------------|
A|------------------|
E|------------------|

RIFF 2
e|-----------------------------------------------------------------|
B|-0---0---0---0---1---1---1---1-----------------------------------|
G|---0---0---0---0---0---0---0---0--2---2---2---2---2---2---2---2--|
D|------------------------------------3---3---3---3---3---3---3----|
A|-----------------------------------------------------------------|
E|-----------------------------------------------------------------|

Breaking your heart was never my intention
Playing with parts too fragile in the ending

****************************************************
        CHORUS

[Am, Fmaj7, C, G] x4

We have become alien, 
We have become alien
Give me a song that weighs a ton
We have become alien

****************************************************
        VERSE 2

[Em, Am, Fmaj7] x4
                
Stop and we start, asking all the questions
Raising alarm, a symptom of the tension
Though we're unarmed, we fumble through the trenches
Taking apart all that we invented

****************************************************
        CHORUS

[Am, Fmaj7, C, G] x4

We have become alien
We have become alien
Give me a song that weighs a ton
We have become alien

****************************************************
        BRIDGE

Em                                Am
        We played the part til comfort's gone
Fmaj7                        Em         Am        Fmaj7
Now the only language is loss  Ooh
                Em        Am        Fmaj7
The language of loss Ooh

*****************************************************
        CHORUS

[Am, Fmaj7, C, G] x4

We have become alien
We have become alien
Give me a song that weighs a ton
We have become alien


*****
Have fun . . . and rate!!!
Tap to rate this tab
# A B C D E F G H I J K L M N O P Q R S T U V W X Y Z