Song name
# A B C D E F G H I J K L M N O P Q R S T U V W X Y Z

Cary Brothers - Cant Take My Eyes Off Of You tab

Capo 4


(Chorus) I've come to tell you all the truth ...

e|-----------0------|-----------0------|-----------0------|-----------0------|
B|-----3-------3---3|-----3-------3---3|-----3-------3---3|-----3-------3---3|
G|-------0----------|-------0----------|-------0----------|-------0----------|
D|---2-----2-----2--|---2-----2-----2--|---2-----2-----2--|---2-----2-----2--|
A|------------------|------------------|------------------|------------------|
E|------------------|------------------|------------------|------------------|


e|-----------0------|-----------0------|-----------0------|-----------0------|
B|-----3-------3---3|-----3-------3---3|-----3-------3---3|-----3-------3---3|
G|-------0----------|-------0----------|-------0----------|-------0----------|
D|------------------|------------------|------------------|------------------|
A|---5-----5-----5--|---5-----5-----5--|---5-----5-----5--|---5-----5-----5--|
E|------------------|------------------|------------------|------------------|

(Chorus) You...can't take my eyes off of you ..



(Verse) Wisdom            tells          me             to               turn

e|-----------3------|-----------3------|-----------2------|-----------2------|
B|-----3-------3---3|-----3-------3---3|-----3-------3---3|-----3-------3---3|
G|-------0----------|-------0----------|-------0----------|-------0----------|
D|---2-----2-----2--|---2-----2-----2--|---2-----2-----2--|---2-----2-----2--|
A|------------------|------------------|------------------|------------------|
E|------------------|------------------|------------------|------------------|
away ..
e|-----------0------|-----------0------|-----------0------|-----------0------|
B|-----3-------3---3|-----3-------3---3|-----3-------3---3|-----3-------3---3|
G|-------0----------|-------0----------|-------0----------|-------0----------|
D|---2-----2-----2--|---2-----2-----2--|---2-----2-----2--|---2-----2-----2--|
A|------------------|------------------|------------------|------------------|
E|------------------|------------------|------------------|------------------|

Broken                     once,           it's            all
e|-----------3------|-----------3------|-----------2------|-----------2------|
B|-----3-------3---3|-----3-------3---3|-----3-------3---3|-----3-------3---3|
G|-------0----------|-------0----------|-------0----------|-------0----------|
D|---2-----2-----2--|---2-----2-----2--|---2-----2-----2--|---2-----2-----2--|
A|------------------|------------------|------------------|------------------|
E|------------------|------------------|------------------|------------------|
the same ..
e|-----------0------|-----------0------|-----------0------|-----------0------|
B|-----3-------3---3|-----3-------3---3|-----3-------3---3|-----3-------3---3|
G|-------0----------|-------0----------|-------0----------|-------0----------|
D|---2-----2-----2--|---2-----2-----2--|---2-----2-----2--|---2-----2-----2--|
A|------------------|------------------|------------------|------------------|
E|------------------|------------------|------------------|------------------|







(Verse)My arms will grow ..
e|-----------0------|-----------0------|-----------0------|-----------0------|
B|-----3-------3---3|-----3-------3---3|-----3-------3---3|-----3-------3---3|
G|-------0----------|-------0----------|-------0----------|-------0----------|
D|---2-----2-----2--|---2-----2-----2--|---2-----2-----2--|---2-----2-----2--|
A|------------------|------------------|------------------|------------------|
E|------------------|------------------|------------------|------------------|
(Chorus) You...can't take my eyes off of you ..

e|-----------0------|-----------0------|-----------0------|-----------0------|
B|-----3-------3---3|-----3-------3---3|-----3-------3---3|-----3-------3---3|
G|-------0----------|-------0----------|-------0----------|-------0----------|
D|------------------|------------------|------------------|------------------|
A|---5-----5-----5--|---5-----5-----5--|---5-----5-----5--|---5-----5-----5--|
E|------------------|------------------|------------------|------------------|



(Outro) Ooooooh ..
e|------------------|------------------|------------------|------------------|
B|------------------|------------------|------------------|------------------|
G|------0-----0-----|------0--------0--|------0--------0--|------0--------0--|
D|------0-----0-----|------2--------2--|------2--------2--|------2--------2--|
A|----2-----0-------|----2--------2----|----2--------2----|----2--------2----|
E|--3-----2---------|--0--------0------|--0--------0------|--0--------0------|

e|------------------|------------------|------------------|------------------|
B|------------------|------------------|------------------|------------------|
G|------0-----------|------0--------0--|------0--------0--|------0--------0--|
D|------2-----------|------0--------0--|------0--------0--|------0--------0--|
A|----2-------------|----2--------2----|----2--------2----|----2--------2----|
E|--0--------0-2----|--3--------3------|--3--------3------|--3--------3------|

e|------------------|
B|------------------|
G|------0-----------|
D|------0-----------|
A|----2-------------|
E|--3--------0-2----|
Tap to rate this tab
# A B C D E F G H I J K L M N O P Q R S T U V W X Y Z