Guitaretab - guitar tabs
Song name
# A B C D E F G H I J K L M N O P Q R S T U V W X Y Z

Cary Brothers - Forget About You tab

Words & music by Cary Brothers

Tab written by emo_maniek@o2.pl

This is once of my favorite songs... and my first tab ;)

Slowly

Standard tuning: eBGDAE 

Intro:0:00
E|----5---------5------------------5----------5--------------|
B|-------3---------3------------------3-----------3----------|
G|-----------------------------------------------------------|
D|-0---------------------------0-----------------------------|
A|-----------2----------4------------------2------------4----|
E|-----------------------------------------------------------|

Verse:0:15(chords with Capo on 3rd)
       C                  C/B                 a
E|----------------------------------------3------------------|
B|--8------8---------------8--------------4----4--4----------|
G|-----------8--------8------8---8--------5----5-------------|
D|-------8----------8---8------8-------5--5----5-------------|
A|--5/6----------5------------------3-----3----3-3--4--------|
E|-----------------------------------------------------------|

  (no lyrics here)
       C                  C/B                 a
E|----------------------------------------3------------------|
B|--8------8---------------8--------------4----4--4----------|
G|-----------8--------8------8---8--------5----5-------------|
D|-------8----------8---8------8-------5--5----5-------------|
A|--5/6----------5------------------3-----3----3-3--4--------|
E|-----------------------------------------------------------|

   (no lyrics here)

0:30
       C                  C/B                 a
E|----------------------------------------3------------------|
B|--8------8---------------8--------------4----4--4----------|
G|-----------8--------8------8---8--------5----5-------------|
D|-------8----------8---8------8-------5--5----5-------------|
A|--5/6----------5------------------3-----3----3-3--4--------|
E|-----------------------------------------------------------|
   Wide awake, fall again...

       C                  C/B                 a
E|----------------------------------------3------------------|
B|--8------8---------------8--------------4----4--4----------|
G|-----------8--------8------8---8--------5----5-------------|
D|-------8----------8---8------8-------5--5----5-------------|
A|--5/6----------5------------------3-----3----3-3--4--------|
E|-----------------------------------------------------------|

   Scratching at my wounds...


0:45
       C                  C/B                 a
E|----------------------------------------3------------------|
B|--8------8---------------8--------------4----4--4----------|
G|-----------8--------8------8---8--------5----5-------------|
D|-------8----------8---8------8-------5--5----5-------------|
A|--5/6----------5------------------3-----3----3-3--4--------|
E|-----------------------------------------------------------|
   Always in tune...

       C                  C/B                 a
E|----------------------------------------3------------------|
B|--8------8---------------8--------------4----4--4----------|
G|-----------8--------8------8---8--------5----5-------------|
D|-------8----------8---8------8-------5--5----5-------------|
A|--5/6----------5------------------3-----3----3-3--4--------|
E|-----------------------------------------------------------|

   Love came to soon...                          And in the...

 
Chorus:1:00


      
E|-----------------------------3-----3-----3-----3---|
B|-----6-----6-----6-----6-----4-----4-----4-----4---|
G|-----7-----7-----7-----7-----5-----5-----5-----5---|
D|-----8-----8-----8-----8--5--5--5--5--5--5--5--5---|
A|--8--8--8--8--8--8--8--8--3--3--3--3--3--3--3--3---|
E|--6--6--6--6--6--6--6--6---------------------------|

   ... morning...              I saw the wave...

E|--------------------------3------------------------|
B|-----6-----6-----6-----6--4--3--6-----6-----6------|
G|-----7-----7-----7-----7--5--3--7-----7-----7------|
D|-----8-----8-----8-----8--5--5--8-----8-----8------|
A|--8--8--8--8--8--8--8--8--3--5ó-8--8--8--8--8------|
E|--6--6--6--6--6--6--6--6-----3--6--6--6--6--6------|
...Wasnít it something...And you say, you donít need me



E|--3--------------------------------------------------------|
B|--4----3---6-----6-----6-----------------------------------|
G|--5----3---7-----7-----7-----------------------------------|
D|--5----5---8-----8-----8-----------------------------------|
A|--3----5---8--8--8--8--8-----------------------------------|
E|-------3---6--6--6--6--6-----------------------------------|
   ...And you say, you love the scene... Forget about...

Verse:1:26
       C                  C/B                 a
E|----------------------------------------3------------------|
B|--8------8---------------8--------------4----4--4----------|
G|-----------8--------8------8---8--------5----5-------------|
D|-------8----------8---8------8-------5--5----5-------------|
A|--5/6----------5------------------3-----3----3-3--4--------|
E|-----------------------------------------------------------|
  You...

       C                  C/B                 a
E|----------------------------------------3------------------|
B|--8------8---------------8--------------4----4--4----------|
G|-----------8--------8------8---8--------5----5-------------|
D|-------8----------8---8------8-------5--5----5-------------|
A|--5/6----------5------------------3-----3----3-3--4--------|
E|-----------------------------------------------------------|
      Forget about you...


       C                  C/B                 a
E|----------------------------------------3------------------|
B|--8------8---------------8--------------4----4--4----------|
G|-----------8--------8------8---8--------5----5-------------|
D|-------8----------8---8------8-------5--5----5-------------|
A|--5/6----------5------------------3-----3----3-3--4--------|
E|-----------------------------------------------------------|
    Had a feeling it would come to this...

       C                  C/B                 a
E|----------------------------------------3------------------|
B|--8------8---------------8--------------4----4--4----------|
G|-----------8--------8------8---8--------5----5-------------|
D|-------8----------8---8------8-------5--5----5-------------|
A|--5/6----------5------------------3-----3----3-3--4--------|
E|-----------------------------------------------------------|
    Stitches always breaking
[ Tab from: http://www.guitaretab.com/c/cary-brothers/79731.html ]
       C                  C/B                 a
E|----------------------------------------3------------------|
B|--8------8---------------8--------------4----4--4----------|
G|-----------8--------8------8---8--------5----5-------------|
D|-------8----------8---8------8-------5--5----5-------------|
A|--5/6----------5------------------3-----3----3-3--4--------|
E|-----------------------------------------------------------|
    Every sound that you make...


       C                  C/B                 a
E|----------------------------------------3------------------|
B|--8------8---------------8--------------4----4--4----------|
G|-----------8--------8------8---8--------5----5-------------|
D|-------8----------8---8------8-------5--5----5-------------|
A|--5/6----------5------------------3-----3----3-3--4--------|
E|-----------------------------------------------------------|
     Keep me awake...                         And in the...


Chrous:2:11


E|-----------------------------3-----3-----3-----3---|
B|-----6-----6-----6-----6-----4-----4-----4-----4---|
G|-----7-----7-----7-----7-----5-----5-----5-----5---|
D|-----8-----8-----8-----8--5--5--5--5--5--5--5--5---|
A|--8--8--8--8--8--8--8--8--3--3--3--3--3--3--3--3---|
E|--6--6--6--6--6--6--6--6---------------------------|

   ... morning...              I saw the gaze...

E|--------------------------3------------------------|
B|-----6-----6-----6-----6--4--3--6-----6-----6------|
G|-----7-----7-----7-----7--5--3--7-----7-----7------|
D|-----8-----8-----8-----8--5--5--8-----8-----8------|
A|--8--8--8--8--8--8--8--8--3--5ó-8--8--8--8--8------|
E|--6--6--6--6--6--6--6--6-----3--6--6--6--6--6------|
...Wasnít it comfort And you say, you donít need me



E|--3--------------------------------------------------------|
B|--4----3---6-----6-----6-----------------------------------|
G|--5----3---7-----7-----7-----------------------------------|
D|--5----5---8-----8-----8-----------------------------------|
A|--3----5---8--8--8--8--8-----------------------------------|
E|-------3---6--6--6--6--6-----------------------------------|
   ...And you say, you want to breath... Forget about...


       C                  C/B                 a
E|----------------------------------------3------------------|
B|--8------8---------------8--------------4----4--4----------|
G|-----------8--------8------8---8--------5----5-------------|
D|-------8----------8---8------8-------5--5----5-------------|
A|--5/6----------5------------------3-----3----3-3--4--------|
E|-----------------------------------------------------------|
  You...

       C                  C/B                 a
E|----------------------------------------3------------------|
B|--8------8---------------8--------------4----4--4----------|
G|-----------8--------8------8---8--------5----5-------------|
D|-------8----------8---8------8-------5--5----5-------------|
A|--5/6----------5------------------3-----3----3-3--4--------|
E|-----------------------------------------------------------|
      Forget about you...

Bridge:2:52

     
E|--4-----4-----4-----4-----4-----4-----4-----4--------------|
B|--4-----4-----4-----4-----4-----4-----4-----4--------------|
G|--5-----5-----5-----5-----5-----5-----5-----5--------------|
D|--6-----6-----6-----6-----6-----6-----6-----6--------------|
A|--6--6--6--6--6--6--6--6--6--6--6--6--6--6--6--6-----------|
E|--4--4--4--4--4--4--4--4--4--4--4--4--4--4--4--4-----------|

Forget about all this life we have...

3:00

     
E|-6-----6-----6-----6---------------------------------------|
B|-8-----8-----8-----8-----6-----6-----6-----6---------------|
G|-8-----8-----8-----8-----7-----7-----7-----7---------------|
D|-8--8--8--8--8--8--8--8--8-----8-----8-----8---------------|
A|-6--6--6--6--6--6--6--6--8--8--8--8--8--8--8---------------|
E|-------------------------6--6--6--6--6--6--6---------------|
        We were the unseen...


E|--4-----4-----4-----4-----4-----4-----4-----4--------------|
B|--4-----4-----4-----4-----4-----4-----4-----4--------------|
G|--5-----5-----5-----5-----5-----5-----5-----5--------------|
D|--6-----6-----6-----6-----6-----6-----6-----6--------------|
A|--6--6--6--6--6--6--6--6--6--6--6--6--6--6--6--6-----------|
E|--4--4--4--4--4--4--4--4--4--4--4--4--4--4--4--4-----------|

    And I donít regret the days


E|-6-----6-----6-----6--------------------------3~-----------|
B|-8-----8-----8-----8-----6-----6-----6-----6ó-4~-----------|
G|-8-----8-----8-----8-----7-----7-----7-----7ó-5~-----------|
D|-8--8--8--8--8--8--8--8--8-----8-----8-----8ó-5~-----------|
A|-6--6--6--6--6--6--6--6--8--8--8--8--8--8--8ó-3~-----------|
E|-------------------------6--6--6--6--6--6--6---------------|
   Wasnít it something...                     Forget about...


Outro:3:26


     C                  C/B                 a
E|----------------------------------------3------------------|
B|--8------8---------------8--------------4----4--4----------|
G|-----------8--------8------8---8--------5----5-------------|
D|-------8----------8---8------8-------5--5----5-------------|
A|--5/6----------5------------------3-----3----3-3--4--------|
E|-----------------------------------------------------------|
  You...

       C                  C/B                 a
E|----------------------------------------3------------------|
B|--8------8---------------8--------------4----4--4----------|
G|-----------8--------8------8---8--------5----5-------------|
D|-------8----------8---8------8-------5--5----5-------------|
A|--5/6----------5------------------3-----3----3-3--4--------|
E|-----------------------------------------------------------|
      Forget about you...

       C                  C/B                 a
E|----------------------------------------3------------------|
B|--8------8---------------8--------------4----4--4----------|
G|-----------8--------8------8---8--------5----5-------------|
D|-------8----------8---8------8-------5--5----5-------------|
A|--5/6----------5------------------3-----3----3-3--4--------|
E|-----------------------------------------------------------|
     Forget about you...

       C                  C/B                 a
E|----------------------------------------3------------------|
B|--8------8---------------8--------------4----4--4----------|
G|-----------8--------8------8---8--------5----5-------------|
D|-------8----------8---8------8-------5--5----5-------------|
A|--5/6----------5------------------3-----3----3-3--4--------|
E|-----------------------------------------------------------|
      Forget about you...


 3:56
     
E|----------------------------6------------------------------|
B|--3-----3-----3-----3--------8-----------------------------|
G|--4-----4-----4-----4---------8----------------------------|
D|--5-----5-----5-----5----------8---------------------------|
A|--5--5--5--5--5--5--5--5--------6--------------------------|
E|--3--3--3--3--3--3--3--3-----------------------------------|


Related for Forget About You tab