Song name
# A B C D E F G H I J K L M N O P Q R S T U V W X Y Z

Cas Haley - Stand By Me tab

-----------------------------------------------------------------------------
                          Stand by Me - Cas Haley
-----------------------------------------------------------------------------
Tabbed by: J.Casquejo
Email: geehanski@yahoo.com

This is Cas Haley's cover of Stand by Me originally by Ben E.King. 

Played throughout:
e|--------------------------|----------------------|
B|----------7-----7---7-----|------7-----7---7-----|
G|----------6--T--6---6--T--|------6--T--6---6--T--|
D|---------7---A--7---7--A--|-----7---A--7---7--A--|
A|----4-4/5----P--5------P--|--4/5----P--5------P--|
E|--5-----------------------|----------------------|

e|--------------------|----------------------------|
B|--------------------|----------------------------|
G|----7--T--7---7--T--|----7--T--7---7--T----------|
D|----7--A--7---7--A--|----7--A--7---7--A----------|
A|-------P---------P--|-------P---------P----------|
E|--7-------7---------|--7-------7-----------------|

e|--------------------|----------------------------|
B|----5-----5---5-----|----7-----7---7-------------|
G|----4--T--4---4--T--|----6--T--6---6--T----------|
D|---4---A--4---4--A--|---6---A--6---6--A----------|
A|-------P---------P--|-------P---------P----------|
E|--3-------3---------|--5-------5-----------------|

e|----------------------------|
B|------7-----7---7-----6/7~--|
G|------6--T--6---6--T--5/6~--|
D|-----7---A--7---7--A--6/7~--|
A|--4/5----P--5------P--4/5~--|
E|----------------------------|


Cas Haley sometimes plays a G7 instead of the x544x3 and an A7 instead of the
x766x5. I personally like this way better.
e|--------------------|----------------------------|
B|----3-----3---3-----|----5-----5---5-------------|
G|----4--T--4---4--T--|----6--T--6---6--T----------|
D|---3---A--3---3--A--|---5---A--5---5--A----------|
A|-------P---------P--|-------P---------P----------|
E|--3-------3---------|--5-------5-----------------|


************************************

| /   slide up
| ~   vibrato

************************************
Tap to rate this tab
# A B C D E F G H I J K L M N O P Q R S T U V W X Y Z