Song name
# A B C D E F G H I J K L M N O P Q R S T U V W X Y Z

Cas Haley - Here I Come tab

-----------------------------------------------------------------------------
                            Here I Come - Cas Haley
-----------------------------------------------------------------------------
Tabbed by: J.Casquejo
Email: geehanski@yahoo.com

This is off the album, Favorites by Cas Haley and Josh Heinrichs. I don't
know if this is an original or a cover. The version he plays live isn't
really reggae like it is on the album. Enjoy.

Here are some videos of him playing live: 
  http://www.youtube.com/watch?v=Vu1bTZQAQlg
  http://www.youtube.com/watch?v=KPO6OQd746s

Album version
Intro:
e|--7---5------2---3------5--|
B|--8---7------3---5------5--|
G|--9---7------4---5------5--|
D|--9---7------4---5------7--|
A|--7---5------2---3------7--|
E|------------------------5--|
Verse/Chorus: (reggae strums)
e|--3------7------|
B|--3------8------|
G|--4------7------|
D|--3--x2--9--x2--|
A|--5------7------|
E|--3-------------|

Live version
Intro/Verse/Chorus: fingerpick chords and then strum up with your index
finger. 
e|-----3----------------------|
B|--3---3----------7h8-----8--|
G|--4----4--T------7----T--7--|
D|--3-------A------9----A--9--|
A|----------P------7----P--7--|
E|--3-------------------------|

Cas sometimes alternates between the first chord and plays this:
e|----------------------------|
B|--5--5-----------7h8-----8--|
G|--4---4---T------7----T--7--|
D|--4----4--A------9----A--9--|
A|----------P------7----P--7--|
E|--3-------------------------|

************************************

| h   hammer-on

************************************
Tap to rate this tab
# A B C D E F G H I J K L M N O P Q R S T U V W X Y Z