Song name
# A B C D E F G H I J K L M N O P Q R S T U V W X Y Z

Cascada - Everytime We Touch tab

---------------------------------------------------------------------------
	                  Everytime We Touch
                            - by Cascada -
        (would have been by me, if she had not beaten me to it lol)
                   all rights and thingamabobs reserved
----------------------------------------------------------------------------

Tabbed by: atgblue1  (youtube name)
Email: if you want to contact me, do it through youtube messages or comments.

Tuning: standard.  this song is from a cover where the guy used a capo on the first
 these tabs work for that also.  just put a capo on, and raise every note one number.  
if
play with capo, and the tab says note "3", then you play the fourth fret instead of 
 get it?  if not, send me a message via youtube.


as far as timing, since it is not sheet music, the best would be to listen to my vid or
original when you want to know how fast etc.  either that or get a enough people to view
and comment on my vid wanting a lesson or vid.  and then i can do that.  lol


e|--------3----3----2----2----0----0----------------0-----2----------------|
B|-----------------------------------------------3-------------------------|
G|-----------------------------------------0---------------------2---------|
D|--------------------------------------------------------0----------------|
A|---------------------------------3---------------------------------------|
E|-------------------------------------------------------------------------|

e|------2----2----------3----------3----3----2----2----0-------------------|
B|----------------------------3--------------------------3-----------------|
G|----------------0--------------------------------------------------------|
D|--------------------------------------0----------------------------------|
A|-------------------------------------------------------------------------|
E|-----------0-------------------------------------------------------------|

e|---0----------3----------5-----3-----2-----0-----------------------------|
B|--------------3----------7-----5----------------------------0------------|
G|---------0---------0---- 0-----------------------------0-----------------|
D|---------------------------------------------------2---------------------|
A|---5---------------------------------------------------------------------|
E|-------------------------------------------0-----------------------------|

e|-----3----3----3----2----2-p-0-----0----------3--------------------------|
B|----------------------------------------------3------------3-------------|
G|------------------------------------------0----------0-------------------|
D|---------------0---------------------------------------------------------|
A|-----------------------------------3-------------------------------------|
E|-----------------------------------------------------------3-------------|

e|---------------3---2p0h2--------3---------------------3------------------|
B|-------------------------------------------------3-----------------------|
G|---------0---------------------------------0--------------------0--------|
D|----0--------------2------------------2---------------------0------------|
A|--------------------------------2----------------------------------------|
E|------------------------------------------------------3------------------|

e|-------------------------------------------------------------------------|
B|---3-----0h3-----3-------------------------------------------------------|
G|-----------------2-------------------------------------------------------|
D|-----------------0-------------------------------------------------------|
A|---2---------------------------------------------------------------------|
E|-------------------------------------------------------------------------|

e|----------------------------------------0--------------------------------|
B|------------0--------------0----------------0----3--------1--------------|
G|---0h2---------------------0------------------------------0--------------|
D|----------------------2----------2--------------------0----------0-------|
A|-----------------2-------------------------------------------------------|
E|------------0-------------------------------------3----------------------|

e|------------------------------------------------------0------------------|
B|---0----3----------------------------------------------------------------|
G|---0----2----------------2-----2h4p2-----0--------------------0h2p0------|
D|--------0----------0---------------------2----2--------------------------|
A|---------------0-------------------------3-------------------------------|
E|----------------------------------------------------------3--------------|

e|---------------------------------0---------------------------------------|
B|-----0---------------0---------------0----3----------0-------------------|
G|---------------------0-------------------------------0-------------------|
D|----------------2---------2---------------------0----------0-------------|
A|-----------2-------------------------------------------------------------|
E|-----0------------------------------------3------------------------------|

e|----------------------2----------3---------------------------------------|
B|---0h3----------------3----------3----3---------3---------------3--------|
G|---0-------------2----------2---------------2---------------2------------|
D|------------0-------------------------------------------0----------------|
A|-------------------------------------------------------------------------|
E|-------------------------------------------------------------------------|

e|---2--------------2----------3--------------2----------0-----------------|
B|--------3---------3-------------------------3----------3-----------------|
G|-------------2---------2---------------0----------0----------0-----------|
D|-----------------------------------2-------------------------------------|
A|-----------------------------3-------------------------------------------|
E|-------------------------------------------------------------------------|

e|-------------------------------------------------------------------------|
B|---3--------------1---------0----3---------------3---------1-------------|
G|-------------0----0---------0----2--------------------0------------------|
D|--------0---------------0--------0-----------0---------------------------|
A|-----------------------------------------0-------------------------------|
E|---3---------------------------------------------------------------------|

e|--------------------------------2---------3-----------------2------------|
B|---1p0--------------------------3---------------------------3------------|
G|----------------0-------------------0----------------0----------0--------|
D|-----------0--------------0---------------------2------------------------|
A|-------------------------------------------3-----------------------------|
E|---0-----------------2---------------------------------------------------|

e|--0-------------------------3----------5---------5-----------------------|
B|--3---------3---------------3-------------------7------------------------|
G|-------0---------------0---------0-------------7-------------------------|
D|------------------0---------------------------0--------------------------|
A|-------------------------------------------------------------------------|
E|-------------3-----------------------------------------------------------|

e|--------------------5-----------------------------33----22----0----------|
B|--------7--------------------7---------------7----55----33----0----------|
G|--7----------7---------7---------------7---------------------------------|
D|-----------------------------------0-------------------------------------|
A|-------------------------------------------------------------------------|
E|-------------------------------------------------------------------------|

e|--0----------------0----2----------2----2---------3------------3---------|
B|--------------1-------------------------------------------3--------------|
G|--------0---------------------2---------------0--------------------------|
D|------------------------0------------------------------------------------|
A|--3----------------------------------------------------------------------|
E|----------------------------------------0--------------------------------|

e|--3----2----2----0--------0----------3----------5----3----2--------------|
B|---------------------3---------------3----------7----5-------------------|
G|----------------------------------0---------0----------------------------|
D|--0-----------------------------------------------0----------------------|
A|--------------------------3----------------------------------------------|
E|-------------------------------------------------------------------------|

e|----0--------------------3----3----2----2p0----0----------3--------------|
B|-------------------0--------------------------------------3--------------|
G|-------------0-----------------------------------------0----------0------|
D|--------2---------------------0------------------------------------------|
A|-----------------------------------------------3-------------------------|
E|----0--------------------------------------------------------------------|

e|-------------------3----2p0h2----3---------------------------------------|
B|---3----------------------------------------------3----------------------|
G|-------------0------------------------------0----------------------------|
D|--------0---------------0-------------2----------------------------------|
A|---------------------------------2---------------------------------------|
E|---3---------------------------------------------------------------------|

e|----3--------------------------------------------------------------------|
B|-------------------3----0h3----3-----------------------------------------|
G|-------------0-----------------2-----------------------------------------|
D|--------0----------------------0-----------------------------------------|
A|-------------------2-----------------------------------------------------|
E|---3---------------------------------------------------------------------|

e|---33----22----0---------------------------------------------------------|
B|---55----33----0---------------------------------------------------------|
G|-------------------------------------------------------------------------|
D|-------------------------------------------------------------------------|
A|-------------------------------------------------------------------------|
E|-------------------------------------------------------------------------|

e|--0----------------0----2----------2----2---------3----------3-----------|
B|--------------1----------------------------------------3-----------------|
G|--------0---------------------2---------------0--------------------------|
D|------------------------0------------------------------------------------|
A|--3----------------------------------------------------------------------|
E|----------------------------------------0--------------------------------|

e|--3----2----2----0--------0----------3----------5----3----2--------------|
B|---------------------3---------------3----------7----5-------------------|
G|----------------------------------0---------0----------------------------|
D|--0---------------------------------------------0------------------------|
A|----------------------------3--------------------------------------------|
E|-------------------------------------------------------------------------|

e|---0--------------------3----3----2----2p0----0----------3---------------|
B|-------------------0-------------------------------------3---------------|
G|-------------0-----------------------------------------0------0----------|
D|--------2--------------------0-------------------------------------------|
A|----------------------------------------------3--------------------------|
E|---0---------------------------------------------------------------------|

e|-------------------3----2p0h2----3---------------------------------------|
B|---3-----------------------------------------------3---------------------|
G|-------------0--------------------------------0--------------------------|
D|--------0---------------0----------------2-------------------------------|
A|---------------------------------2---------------------------------------|
E|---3---------------------------------------------------------------------|

e|---3---------------------------------------------------------------------|
B|-------------------3----0h3----------------------------------------------|
G|-------------0-------------------2---------------------------------------|
D|--------0------------------------0---------------------------------------|
A|-------------------2-----------------------------------------------------|
E|---3---------------------------------------------------------------------|

 this last part is harmonics
e|----------------------------12----12---------12--------------------------|
B|---------------7----7------------------------------7--------7----7-------|
G|----5----5-------------------------------------------------------------5-|
D|-------------------------------------------------------------------------|
A|-------------------------------------------------------------------------|
E|-------------------------------------------------------------------------|


If you have questions about finger positions etc, then you can also check my vid of it.
is posted on youtube.  just search my name atgblue1 and you will find it on my channel.
if the vid still does not help, send me a message or something and I will see if I can help.

Also, if you gusy want to, then I can post either a video lesson, or just post a much
version where you can see all my finger positions and I will go really slow.  which my
better for the intermediate guitarist.  but I will need comments requesting it and subbs 
do that ! ! ! (on youtube).
also, if you are from youtube, i would appreciate it if you only used the tabs for
anyone else you know, or any other youtubers, if you coudl please refer them to my video to
the tabs, that woudl be great.  after all, it was very tedious to get these tabs put up, 
some recompense would be great.

| /  slide up
| \  slide down
| h  hammer-on
| p  pull-off
| ~  vibrato
| +  harmonic
| x  Mute note
================================================
Tap to rate this tab
# A B C D E F G H I J K L M N O P Q R S T U V W X Y Z