Song name
# A B C D E F G H I J K L M N O P Q R S T U V W X Y Z

Cascada - Every Time We Touch tab

Help us improve GuitareTab! Take a short survey!
this sounds really cool with a distortion pedal and a synth pedal, im 95% sure this is right.

e------------------------------------------------------|
b--9-9p8-8---------8----8-9----9-9p8-8------9/11-9-8---|
g----------1010-10---10----------------1010---------10-|
d------------------------------------------------------|
a------------------------------------------------------|
E------------------------------------------------------|

e------------------------------------------------------|
b--999-8-8-------9---9-8--8--9-9p8-9-------------------|
g----------10-10---8----10-10-------10-8---------------|
d----------------------------------------10-8----------|
a------------------------------------------------------|
E------------------------------------------------------|

there it is sounds good to me, e-mailme with questions or corrections at brian91012001@yahoo.com
                            -Brian
Related for Every Time We Touch tab