Song name
# A B C D E F G H I J K L M N O P Q R S T U V W X Y Z

Casey Abrams - Midnight Girl tab

Artist : Casey Abrams
Track  : "Midnight Girl"

Tuning : D A D F# A e (Open D tuning with the high e string left unchanged)
Capo   : Nope

Tabbed By : Chester Abellera (^-^)




Song Structure:
 ___________________
|- Intro       (1x) |
|- 1st Verse   (2x) |
|- Pre-Chorus  (2x) |
|___________________|
|- Chorus      (2x) |
|- Post-Chorus (1x) |
|___________________|
|- Interlude   (1x) |
|___________________|
|- 2nd Chorus  (2x) |
|- Pre-Chorus  (2x) |
|___________________|
|- Chorus      (2x) |
|- Post-Chorus (1x) |
|___________________|
|- Interlude   (1x) |
|___________________|
|- Bridge      (1x) |
|___________________|
|- Chorus      (2x) |
|- Post-Chorus (1x) |
|- Chorus      (2x) |
|- Post-Chorus (1x) |
|___________________|




Intro/Verse
e |-----5--x--4--4--x--2--2--x--0-----x--0-----x--0-----x--|
A |--------x--------x--------x-----0--x-----0--x-----0--x--|
F#|--------x--------x--------x--------x--------x--------x--|
D |--------x--------x--------x--------x--------x--------x--|
A |--------x--------x--------x--------x--------x--------x--|
D |--4-----x--2-----x--0-----x--7-----x--7-----x--7-----x--|




e |-----5--x--4--4--x--4--5--x--0-----x--0-----x--0-----x--|
A |--------x--------x--------x-----0--x-----0--x-----0--x--|
F#|--------x--------x--------x--------x--------x--------x--|
D |--------x--------x--------x--------x--------x--------x--|
A |--------x--------x--------x--------x--------x--------x--|
D |--4-----x--2-----x--0-----x--7-----x--7-----x--7-----x--|




Pre-Chorus
e |-----0--x--0-----0~~~~----x--0-----x--|
A |--------x-----0--0~~~~-0--x-----0--x--|
F#|--------x--------0~~~~----x--------x--|
D |--------x--------0~~~~----x--------x--|
A |--------x--------0~~~~----x--------x--|
D |--2-----x--4-----0~~~~----x--0-----x--|




Chorus
e |--0--0--x-----0--x-----0--x-----0--x--|
A |--0--0--x-----0--x-----0--x-----0--x--|
F#|--------x--------x--------x--------x--|
D |--4-----x-22-----x-00-----x-77-----x--|
A |--4-----x-22-----x-00-----x-77-----x--|
D |--4-----x-22-----x-00-----x-77-----x--|




Post-Chorus
e |-----0--x--0--0--x--0--0--x-----0--x--0--0-0-0-0-0-0--0~~~~--|
A |-----0--x--0--0--x--0--0--x-----0--x--0--0-0-0-0-0-0--0~~~~--|
F#|--------x--------x--------x--------x------------------0~~~~--|
D |--4-----x---11---x---12---x-7------x-----9-9-9-9-9----4~~~~--|
A |--4-----x---11---x---12---x-7------x-----9-9-9-9-9----0~~~~--|
D |--4-----x---11---x---12---x-7------x-----9-9-9-9-9----0~~~~--|




Interlude
e |-----5--x--4--4--x--2--2--x--0-----x--0-----x--0-----x--|
A |--------x--------x--------x-----0--x-----0--x-----0--x--|
F#|--------x--------x--------x--------x--------x--------x--|
D |--------x--------x--------x--------x--------x--------x--|
A |--------x--------x--------x--------x--------x--------x--|
D |--4-----x--2-----x--0-----x--7-----x--7-----x--7-----x--|




Bridge

e |--0--0--x-----0--x-0~~~~--x--0-----x--0-----x--0-----x--|
A |--0--0--x-----0--x-0~~~0--x-----0--x-----0--x-----0--x--|
F#|--------x--------x-0~~~~--x--------x--------x--------x--|
D |--2-----x-444----x-0~~~~--x--------x--------x--------x--|
A |--2-----x-444----x-0~~~~--x--------x--------x--------x--|
D |--2-----x-444----x-0~~~~--x--0-----x--0-----x--0-----x--|




e |-----0--x-----0--x--0--0--x-----0--x--0--0--x--0--0--x--|
A |-----0--x-----0--x--0--0--x-----0--x--0--0--x--0--0--x--|
F#|--------x--------x--------x--------x--------x--------x--|
D |--2-----x-444----x---9----x--22----x---2----x---2----x--|
A |--2-----x-444----x---9----x--22----x---2----x---2----x--|
D |--2-----x-444----x---9----x--22----x---2----x---2----x--|




e |-----0--x-----0--x--0--0--x--0--0--x--00~~~~----0~~~~----|
A |-----0--x-----0--x--0--0--x--0--0--x--00~~~~----0~~~~----|
F#|--------x--------x--------x--------x---------------------|
D |--11----x-44-----x---9----x--------x---2~~~~----2~~~~----|
A |--11----x-44-----x---9----x--------x---2~~~~----2~~~~----|
D |--11----x-44-----x---9----x--------x---2~~~~----2~~~~----|




End on      e |--0~~~~--|
            A |--0~~~~--|
  =)        F#|--0~~~~--|
            D |--4~~~~--|
            A |--0~~~~--|
            D |--0~~~~--|





Lyrics :
Saw you on a subway in New York City
Called across the platform but no you didnít hear me
you took my heart but never left my brain
youíre headed up to Harlem on a uptown train

before that night, everything was
black and white

And I wanna tell you right now
Youíre the kinda girl Ray was singing about
I know it sounds crazy.
Donít know how in this world
But I found my Midnight Girl

Youíre friends all wondering what Iím doing round here
I know their probably wishing that I just disappear
And I, know I hear them laughing when Iím out of the room
You can, tell them I ainít leaving anytime soon

ícause you,know this Life, isnít so black and white

And I wanna tell you right now
Youíre the kinda girl Ray was singing about
I know it sounds crazy.
Donít know how in this world
But I found my Midnight Girl

They all say weíre from two different worlds
Iíma say weíre a boy and a girl
Call me crazy but itís all the same to me

And I wanna tell you right now
Youíre the kinda girl Ray was singing about
I know it sounds crazy.
Donít know how in this world
But I found my Midnight Girl
Tap to rate this tab
# A B C D E F G H I J K L M N O P Q R S T U V W X Y Z