Song name
# A B C D E F G H I J K L M N O P Q R S T U V W X Y Z

Casey Donovan - Whats Going On tab

Hello, this is my first tab i've done, so i hope you like it. took a good 2 hours, 
and it sounds spot on.


Tuning Drop D

Chords

     Dm   Bb    F    C
E|---1----1-----1--------|
B|---3----3-----1----1---|
G|---2----3-----2--------|
D|--------3-----3----2---|
A|--------1-----3----3---|
D|--------------x--------|




Intro

(Play Piano or Acoustic)
E|--------------------------------|
B|----------18------------18------|
G|-15-14-15-------15-14-15----17--|
D|--------------------------------|
A|-17-------------17--------------|
D|-17-------------17--------------|


Verse 1
Dm     Bb	       F
It's 3am I start to cry
 	       C
I'm alone again
Dm	    Bb		         F
I try so hard not to fall in love
	     C
But here I am



Prechorus

	Bbsus2   F	  C	       Bbsus2	F	      C
And you couldn't even pretend that you cared if this was the end



E|------------------------------------------------------------------|
B|------------------------------------------------------------------|
G|------------------------------------------------------------------|
D|-7-7-7-7-7-7-7-7-8-8-8-8-8-8-8-8\-3-3-3-3-3-3-3-3-5-5-5-5-5-5-5-5-|
A|-5-5-5-5-5-5-5-5-8-8-8-8-8-8-8-8\-3-3-3-3-3-3-3-3-3-3-3-3-3-3-3-3-|
D|-----------------8-8-8-8-8-8-8-8\-3-3-3-3-3-3-3-3-----------------|

Chorus 

All the things you said to me won't even matter			
Do what you want Coz I'm not gonna save you baby	     
What's going on?

E|------------------------------------------------------------------|
B|------------------------------------------------------------------|
G|------------------------------------------------------------------|
D|-7-7-7-7-7-7-7-7-8-8-8-8-8-8-8-8\-3-3-3-3-3-3-3-3-5-5-5-5-5-5-5-5-|
A|-5-5-5-5-5-5-5-5-8-8-8-8-8-8-8-8\-3-3-3-3-3-3-3-3-3-3-3-3-3-3-3-3-|
D|-----------------8-8-8-8-8-8-8-8\-3-3-3-3-3-3-3-3-----------------|

We don't care, we don't fight					    
We don't even know what's wrong or right now baby	   
What's going on?	     
What's going on?

E|--------------------------|
B|--1\6-5-6\13v---1\6-5-6\1-|
G|--------------------------|
D|--------------------------|
A|--------------------------|
D|--------------------------|



Verse 2 
Dm		 Bb	      F
There's nothing else I can say
	     C
What can I do?
Dm	           Bb		 F
We might have worked out some day
	        C
But it takes two

	 Bbsus2    F	C	       Bbsus2  F	      C
And you couldn't even pretend that you cared if this was the end


E|------------------------------------------------------------------|
B|------------------------------------------------------------------|
G|------------------------------------------------------------------|
D|-7-7-7-7-7-7-7-7-8-8-8-8-8-8-8-8\-3-3-3-3-3-3-3-3-5-5-5-5-5-5-5-5-|
A|-5-5-5-5-5-5-5-5-8-8-8-8-8-8-8-8\-3-3-3-3-3-3-3-3-3-3-3-3-3-3-3-3-|
D|-----------------8-8-8-8-8-8-8-8\-3-3-3-3-3-3-3-3-----------------|
Chorus
			    
All the things you said to me won't even matter				 
Do what you want coz I'm not gonna save you baby
What's going on?

E|------------------------------------------------------------------|
B|------------------------------------------------------------------|
G|------------------------------------------------------------------|
D|-7-7-7-7-7-7-7-7-8-8-8-8-8-8-8-8\-3-3-3-3-3-3-3-3-5-5-5-5-5-5-5-5-|
A|-5-5-5-5-5-5-5-5-8-8-8-8-8-8-8-8\-3-3-3-3-3-3-3-3-3-3-3-3-3-3-3-3-|
D|-----------------8-8-8-8-8-8-8-8\-3-3-3-3-3-3-3-3-----------------|

We don't care, we don't fight			  
We don't even know what's wrong or right now baby
What's going on?	
What's going on?

E|--------------------------|
B|--1\6-5-6\13v---1\6-5-6\1-|
G|--------------------------|
D|--------------------------|
A|--------------------------|
D|--------------------------|

			   
All the things you said to me won't even matter

E|--------------|
B|--1\6-5-6\13v-|
G|--------------|
D|--------------|
A|--------------|
D|--------------|



        Bbsus2   F     C            Bbsus2   F            C
But I couldn't even pretend that I cared if this is the end

                          E|-------|
                          B|-------|
                          G|-------|
                          D|-2-2-2-|
                          A|-2-2-2-|
                          D|-2-2-2-|
(I'm not gonna save you baby)

			  

E|------------------------------------------------------------------|
B|------------------------------------------------------------------|
G|------------------------------------------------------------------|
D|-7-7-7-7-7-7-7-7-8-8-8-8-8-8-8-8\-3-3-3-3-3-3-3-3-5-5-5-5-5-5-5-5-|
A|-5-5-5-5-5-5-5-5-8-8-8-8-8-8-8-8\-3-3-3-3-3-3-3-3-3-3-3-3-3-3-3-3-|
D|-----------------8-8-8-8-8-8-8-8\-3-3-3-3-3-3-3-3-----------------|

All the things you said to me won't even matter				     
Do what you want coz I'm not gonna save you baby     
What's going on?

E|------------------------------------------------------------------|
B|------------------------------------------------------------------|
G|------------------------------------------------------------------|
D|-7-7-7-7-7-7-7-7-8-8-8-8-8-8-8-8\-3-3-3-3-3-3-3-3-5-5-5-5-5-5-5-5-|
A|-5-5-5-5-5-5-5-5-8-8-8-8-8-8-8-8\-3-3-3-3-3-3-3-3-3-3-3-3-3-3-3-3-|
D|-----------------8-8-8-8-8-8-8-8\-3-3-3-3-3-3-3-3-----------------|

We don't care, we don't fight				      
We don't even know what's wrong or right now baby	
What's going on?

E|------------------------------------------------------------------|
B|------------------------------------------------------------------|
G|------------------------------------------------------------------|
D|-7-7-7-7-7-7-7-7-8-8-8-8-8-8-8-8\-3-3-3-3-3-3-3-3-5-5-5-5-5-5-5-5-|
A|-5-5-5-5-5-5-5-5-8-8-8-8-8-8-8-8\-3-3-3-3-3-3-3-3-3-3-3-3-3-3-3-3-|
D|-----------------8-8-8-8-8-8-8-8\-3-3-3-3-3-3-3-3-----------------|

			  
All the things you said to me won't even matter				       
Do what you want coz I'm not gonna save you baby     
What's going on?

E|------------------------------------------------------------------|
B|------------------------------------------------------------------|
G|------------------------------------------------------------------|
D|-7-7-7-7-7-7-7-7-8-8-8-8-8-8-8-8\-3-3-3-3-3-3-3-3-5-5-5-5-5-5-5-5-|
A|-5-5-5-5-5-5-5-5-8-8-8-8-8-8-8-8\-3-3-3-3-3-3-3-3-3-3-3-3-3-3-3-3-|
D|-----------------8-8-8-8-8-8-8-8\-3-3-3-3-3-3-3-3-----------------|


We don't care, we don't fight					
We don't even know what's wrong or right now baby	
What's going on?	
What's going on?


E|----------------------------|
B|----------18------------18--|
G|-15-14-15-------15-14-15----|
D|----------------------------|
A|-17-------------17----------|
D|-17-------------17----------|

But here i am~


Please rate 5 stars if you liked it

Tap to rate this tab
# A B C D E F G H I J K L M N O P Q R S T U V W X Y Z