Song name
# A B C D E F G H I J K L M N O P Q R S T U V W X Y Z

Casey Jones - Just Another Day In The Fla tab

OKKK
Casey Jones
straight Edge Hardcore band on eulogy records
Just another day in the fla
is the first song on The few, The proud,the crucial.
rate high
and lets stop slacking and put some more hardcore tabs on UG.
http://www.indianolarecords.com/artists.php?bandname=Casey+Jones

tuning
D
A
F
C
G
D

starts out exactly like this...
D---------------------------------------------------------------------------|
A---------------------------------------------------------------------------|
F---------------------------------------------5-5-5-------------------------|
C---------------------------------------------5-5-5-------------------------|
G-2-2-2-5-5-5-4-4-4-2-2-5-5-5-5-5-5-4-4-4-2-2-3-3-3-5-5-5-4-4-4-2-2---------|
D-0-0-0-----------------3-3-3-----------------------------------------------|

D---------------------------|
A---------------------------|
F---------------------------|
C-10-10-10-10-10-7-7-7-9-10-|
G---------------------------|
D---------------------------|

Play this one  four times
D--------------------------------------------|
A--------------------------------------------|
F--------------------------------------------|
C---------------------------------5-5-5-5-5--|
G-2-2-2-2-2-2-2-2-2-2--5-5-5-5-5--3-3-3-3-3--|
D-0-0-0-0-0-0-0-0-0-0--3-3-3-3-3-------------|

The song will slow down and you wil know when to play this
D---------------------------------------------------------------------------|
A-17-17-17-17-17-17-17-21-21-21-21-21-21-21---------------------------------|
F---------------------------------------------------------------------------|
C---------------------------------------------------------------------------|
G---------------------------------------------------------------------------|
D---------------------------------------------------------------------------|

"DONT MAKE US BRAKE THIS 5hit DOWN FOR NOTHIN!!"
D---------------------------------------------------------------------------|
A---------------------------------------------------------------------------|
F---------------------------------------------------------------------------|
C---------------------------------------------------------------------------|
G-2-5-2-5-2-5-2-------------------------------------------------------------|
D-0-3-0-3-0-3-0-3-5---------------------------------------------------------|

The end of this song song is just simple palm muting
play along with the cd and you will do fine

D----------------------------------------------------------------------------|
A----------------------------------------------------------------------------|
F----------------------------------------------------------------------------|
C----------------------------------------------------------------------------|
G-2-2-2-2-2-2-2-2-2-2-2-2-2-2-2-2-2-2-2-2-2----------------------------------|
D-0-0-0-0-0-0-0-0-0-0-0-0-0-0-0-0-0-0-0-0-0----------------------------------|
have fun
Tap to rate this tab
# A B C D E F G H I J K L M N O P Q R S T U V W X Y Z