Song name
# A B C D E F G H I J K L M N O P Q R S T U V W X Y Z

Cash Cash - Party In Your Bedroom tab

I noticed that no one made any tabs for this band so i decided to make one for
 party in your bedroom =)
It's pretty easy!
Any comments?
Email Me At AnThEmPt4@Aol.com

Cash Cash Websites:
http://www.myspace.com/Cashcash
http://www.cashcashmusic.com

Intro:Theres a party in your bedroom all night long...
E|----------------------------------------------------------------------|
B|----------------------------------------------------------------------|
G|----2--22---44--4---------------22---22---22-----44--4---------66--44-|
D|----2--22---44--4-----6--66-----22---22---22-----44--4----66---66--44-|
A|----0--00---22--2-----6--66-----00---00---00-----22--2----66---44--22-|
E|----------------------4--44-------------------------------44----------|
Repeat 4 Times

Lips sealed tight don't say goodnight
E|---------------------------------------------------------------------|
B|---------------------------------------------------------------------|
G|---2222---44--5------------------------------------------------------|
D|---2222---44--5------------------------------------------------------|
A|---0000---22--3------------------------------------------------------|
E|---------------------------------------------------------------------|


Verse:Walking down the street
E|-----------------------------------------------------------------|
B|-----------------------------------------------------------------|
G|------6-------22----9----444-------------------------------------|
D|------6-------22----9----444-------------------------------------|
A|------4-------00----7----222-------------------------------------|
E|-----------------------------------------------------------------|
Repeat two times


Pre-Chorus:Upstatirs all alone
E|--------------------------------------------------------------------|
B|--------5-5---7-7---4-4---9-9---5-5---7-7----4444-------------------|
G|---------4-4---4-4---4-4---6-6---4-4---4-4--------------------------|
D|--------------------------------------------------------------------|
A|--------------------------------------------------------------------|
E|--------------------------------------------------------------------|


Chorus:Theres a party in your bedroom
E|----------------------------------------------------------------------|
B|----------------------------------------------------------------------|
G|----2--22---44--4---------------22---22---22-----44--4---------66--44-|
D|----2--22---44--4-----6--66-----22---22---22-----44--4----66---66--44-|
A|----0--00---22--2-----6--66-----00---00---00-----22--2----66---44--22-|
E|----------------------4--44-------------------------------44----------|
Repeat Two Times


Lips sealed tight don't say goodnight
E|---------------------------------------------------------------------|
B|---------------------------------------------------------------------|
G|---2222---44--5------------------------------------------------------|
D|---2222---44--5------------------------------------------------------|
A|---0000---22--3------------------------------------------------------|
E|---------------------------------------------------------------------|


Verse:Dancing With Your Hands
E|-----------------------------------------------------------------|
B|-----------------------------------------------------------------|
G|------6-------22----9----444-------------------------------------|
D|------6-------22----9----444-------------------------------------|
A|------4-------00----7----222-------------------------------------|
E|-----------------------------------------------------------------|
Repeat two times


Pre-Chorus:Upstatirs all alone
E|--------------------------------------------------------------------|
B|--------5-5---7-7---4-4---9-9---5-5---7-7----4444-------------------|
G|---------4-4---4-4---4-4---6-6---4-4---4-4--------------------------|
D|--------------------------------------------------------------------|
A|--------------------------------------------------------------------|
E|--------------------------------------------------------------------|

Chorus:Theres a party in your bedroom
E|----------------------------------------------------------------------|
B|----------------------------------------------------------------------|
G|----2--22---44--4---------------22---22---22-----44--4---------66--44-|
D|----2--22---44--4-----6--66-----22---22---22-----44--4----66---66--44-|
A|----0--00---22--2-----6--66-----00---00---00-----22--2----66---44--22-|
E|----------------------4--44-------------------------------44----------|
Repeat Four Times


Lips sealed tight don't say goodnight
E|---------------------------------------------------------------------|
B|---------------------------------------------------------------------|
G|---2222---44--5------------------------------------------------------|
D|---2222---44--5------------------------------------------------------|
A|---0000---22--3------------------------------------------------------|
E|---------------------------------------------------------------------|


Interlude:It's no debait
E|---------------------------------------------------------------------|
B|---------------------------------------------------------------------|
G|----456--------------------------------------------------------------|
D|----456----654-----666-666-666666666---------------------------------|
A|----234----654-----666-666-666666666---------------------------------|
E|-----------432-----444-444-444444444---------------------------------|

BREAKDOWN!


Chorus:Cause theres a party in your bedroom
E|----------------------------------------------------------------------|
B|----------------------------------------------------------------------|
G|----2--22---44--4---------------22---22---22-----44--4---------66--44-|
D|----2--22---44--4-----6--66-----22---22---22-----44--4----66---66--44-|
A|----0--00---22--2-----6--66-----00---00---00-----22--2----66---44--22-|
E|----------------------4--44-------------------------------44----------|
Repeat Four Times


Lips sealed tight don't say goodnight
E|---------------------------------------------------------------------|
B|---------------------------------------------------------------------|
G|---2222---44--5------------------------------------------------------|
D|---2222---44--5------------------------------------------------------|
A|---0000---22--3------------------------------------------------------|
E|---------------------------------------------------------------------|

There =)
All Done!
Tap to rate this tab
 
# A B C D E F G H I J K L M N O P Q R S T U V W X Y Z