Song name
# A B C D E F G H I J K L M N O P Q R S T U V W X Y Z

Cash Cash - Reach For The Stars tab

                  Cash Cash - Reach For the Stars - Solo

e--------------------------------------------------------------------------|
B--------------------------------------------------------------------------|
G--------------------------------------------------------------------------|
D----0--2--4--5--4-2-0---0-----0--7--7--5-4-0------0--2--4--5--4-2-0-------|
A-0-------------------------4-------------------0--------------------------|
E--------------------------------------------------------------------------|


e--------------------------------------------------------------------------|
B--------------------------------------------------------------------------|
G--------------------------------------------------------------------------|
D-0-----0--7--7--5-4-5-----------------------------------------------------|
A----4---------------------------------------------------------------------|
E--------------------------------------------------------------------------|

This solo is deceiving because it sounds more complicated than it really is.

Thanks for looking!
Tabbed by sonicguitar91
Tap to rate this tab
 
# A B C D E F G H I J K L M N O P Q R S T U V W X Y Z