Guitaretab - guitar tabs
Song name
# A B C D E F G H I J K L M N O P Q R S T U V W X Y Z

Cash Johnny - Walk The Line tab

The Autumn Offering
Song: Walk The Line
Album: Embrace The Gutter

Tuning: 2 whole steps down C tuning

Intro A x4 gtr1&2
|--------------------|
|--------------------|
|--------------------|
|-----------8--------|
|-----7h8p7-----5h7--|
|-000---------0------|
  ...         .
Riff 1 gtr1 x2 
|-------------------------------|
|-------------------------------|
|-------------------------------|
|--2---3---2--------------------|
|--2---3---2--------------------|
|--2---3---2---000-000-111-222--|
               ... ... ... ...
Riff 1 gtr2
|-------------------------------------------------------------------|
|-------------------------------------------------------------------|
|-------------------------------------------------------------------|
|-------------------------------------------------------------------|
|--9/8---9/8------10/9--10/9-------8/7---8/7------------------------|
|--7/6-0-7/6-0-000-8/7-0-8/7-0-000-6/5-0-6/5-0-000--000-000-111-222-|
       .     . ...     .     . ...     .     . ...  ... ... ... ...
Riff 2 x4 gtr1
|---------------------|
|---------------------|
|---------------------|
|-------8/7-----------|
|--9/8--6/5--8/7-8/7--|
|--7/6-------6/5-6/5--|

Riff 3 gtr2 x2
|-----------------------------------|
|-----------------------------------|
|-----------------------------------|
|--------8/7------------------------|
|--9/8---6/5---8/9-9/8-----9/8------|
|--7/6-0-----0-6/7-7/6-000-7/6-000--|
       .     .         ...     ...
gtr2 cont'd Cut off the last 3 mutes the 
                second time around
|-----------------------------------|
|-----------------------------------|
|-----------------------------------|
|--------8/7------------------------|
|--9/8---6/5---9/8-9/8-----9/8------|
|--7/6-0-----0-7/6-7/6-000-7/6-000--|
       .     .         ...     ...

|------|
|------|
|------|
|--2x--|
|--2x--|
|--0x--|

Riff 4 x2 cut off last 10 mutes second time around
|----------------------------------------------------------------------|
|----------------------------------------------------------------------|
|----------------------------------------------------------------------|
|----------------------------------------------------------------------|
|------------6p4p0h6------------7p5p0h7------------6p4p0h6-------------|
|-0000000000---------0000000000---------0000000000---------0000000000--|
  ..........         ..........         ..........         ..........

Riff 4 gtr2 x1
|---------------------------------|
|---------------------------------|
|---------------------------------|
|---3---2--2--2--2--2222--2222-2--|
|---3---2--2--2--2--2222--2222-2--|
|-0-3---0--0--0--0--0000--0000-0--|
  .                       .... .

Riff 4B x2 gtr1&2
|-----------------------------------------------------------|
|-----------------------------------------------------------|
|-----------------------------------------------------------|
|-----------------------------------------------------------|
|------------6p4p0h6------------7p5p0h7------------6p4p0h6--|
|-0000000000---------0000000000---------0000000000----------|
  ..........         ..........         ..........         
[ Tab from: http://www.guitaretab.com/c/cash-johnny/3143.html ]
Cont'd first x2
|-------------------|
|-------------------|
|-------------------|
|--------5h7p5------|
|--5-7-8-------8p7--|
|-------------------|
   . . .  
Riff 4C gtr1 x2 
|-----------------------------------------------------------|
|-----------------------------------------------------------|
|-----------------------------------------------------------|
|-----------------------------------------------------------|
|------------6p4p0h6------------7p5p0h7------------6p4p0h6--|
|-0000000000---------0000000000---------0000000000----------|
  ..........         ..........         ..........         

Riff 4C gtr2 x2
|-----------------------------------------------------------|
|-----------------------------------------------------------|
|-----------------------------------------------------------|
|------------6p4p0h6------------7p5p0h7------------6p4p0h6--|
|-----------------------------------------------------------|
|-0000000000---------0000000000---------0000000000----------|
  ..........         ..........         ..........

gtr 1&2 first time only
|-----------------------------------------|
|-----------------------------------------|
|-----------------777-999-777-------------|
|--777-999-101010-------------101010-999--|
|-----------------------------------------|
|-----------------------------------------|
   ... ... ...... ... ... ... ...... ...

Riff 5 gtr1&2 x5 cut off mutes
                  last time
|-------------------------|
|-------------------------|
|-------------------------|
|-------------------------|
|--3----2-----------------|
|----4~----3~---00000000--|
                ........
Riff 6 gtr1 x7
|---------------------|
|---------------------|
|---------------------|
|---------------------|
|---------------------|
|--000-0-0000000-000--|
   ... . ....... ...

gtr2 sorry dont know this part
|----------------------------------------------------------------------|
|----------------------------------------------------------------------|
|--10~~~9-10-12^-10-9~~~-9-10-12^-9-8~~~9-10-12^-10-9------------------|
|----------------------------------------------------------------------|
|----------------------------------------------------------------------|
|----------------------------------------------------------------------|

or the melodic part sorry!!!
|----------------------------------------------------------------------|
|----------------------------------------------------------------------|
|----------------------------------------------------------------------|
|----------------------------------------------------------------------|
|----------------------------------------------------------------------|
|----------------------------------------------------------------------|

Repeat 4B x2
Repeat 4C x2
Repeat 5  x4 skip muting last time

Riff 5B x4 skip muting last time
|--------------------------------|
|--------------------------------|
|--------------------------------|
|--------------------------------|
|--3----2------------------------|
|----4~----3~---0-0-0-0-000-000--|
                . . . . ... ...


|-----|
|-----|
|-----|
|--0--|
|--0--|
|--0--|

clean part going into TheFinal Cut
|----------------------------------------------------------------------|
|----------------------------------------------------------------------|
|----------------------------------------------------------------------|
|----------------------------------------------------------------------|
|----------------------------------------------------------------------|
|----------------------------------------------------------------------|

|----------------------------------------------------------------------|
|----------------------------------------------------------------------|
|----------------------------------------------------------------------|
|----------------------------------------------------------------------|
|----------------------------------------------------------------------|
|----------------------------------------------------------------------|
Related for Walk The Line tab
Walk The Line chords by Cash Johnny