Song name
# A B C D E F G H I J K L M N O P Q R S T U V W X Y Z

Cash Tuesday - Lost Cause tab

Help us improve GuitareTab! Take a short survey!
----------------------------------------------------------------------------
Title: Time Machine
Author: Cash Tuesday
www.cashtuesday.com
----------------------------------------------------------------------------

Tabbed by: Lorenzo Price
Email: LPrice34@adelphia.net

Tuning: Acoustic EADGBe

Order:
Intro
Verse
Chorus
Verse
Chorus
Solo
Chorus
Outro



Intro/Outro
    
  2x       
e|------------------|
B|------------------|
G|---0---0---0---2--|
D|--2-0-2-0-0-0-0-0-|
A|-2---3------------|
E|---------3---2----|

Verses
  4x
e|------------------|
B|------------------|
G|---0---0---0---2--|
D|--2-0-2-0-0-0-0-0-|
A|-2---3------------|
E|---------3---2----|

Chorus

Strum 5 times each
e|-3-3-3-3-|
B|-3-3-3-3-|
G|-0-0-0-2-|
D|-2-2-0-0-|
A|-2-3-2-0-|
E|-0-0-3-2-|

Solo

e|-3---33/5-------3---33/5\3/75\3p0-3---3/5\3-|
B|--3-3----3p0h3p0-3-3---------------3-3------|
G|---0--------------0-----------------0-------|
D|--------------------------------------------|
A|--------------------------------------------|
E|--------------------------------------------|
Related for Lost Cause tab