Song name
# A B C D E F G H I J K L M N O P Q R S T U V W X Y Z

Casiokids - Fot I Hose tab

Casiokids - Fot i hose 

Tuning: Standard

Any corrections/suggestions would be appreciated.

(everything is palm muted)

e|-----------------------------------------------------------------|
B|-----------------------------------------------------------------|
G|-----------------------------------------------------------------|
D|-88--------------------------------------------------------------|
A|----10-11(11)-11(11)11-11(11)11-11(11)11--11(11)11--11(11)11-----|
E|-----------------------------------------------------------------|

e|-----------------------------------------------------------------|
B|-----------------------------------------------------------------|
G|-----------------------------------------------------------------|
D|-----------------------------------------------------------------|
A|---11(11)11-11(11)11-11(11)11-11(11)11--11(11)11--11(11)11-------|
E|-----------------------------------------------------------------|
x2
until 0:18

e|-----------------------------------------------------------------|
B|-----------------------------------------------------------------|
G|-13--------------------------------------------------------------|
D|----13-11-------------9-11---------------------------------------|
A|----------11-9----9-11-------------------------------------------|
E|-----------------------------------------------------------------|
:19

e|-----------------------------------------------------------------|
B|-----------------------------------------------------------------|
G|-----------------------------------------------------------------|
D|-----------------------------------------------------------------|
A|---11(11)-11(11)11-11(11)11-11(11)11--11(11)11--11(11)11---------|
E|-----------------------------------------------------------------|
x2

e|-----------------------------------------------------------------|
B|-----------------------------------------------------------------|
G|-----------------------------------------------------------------|
D|-----------------------------------------------------------------|
A|---11(11)11-11(11)11-11(11)11-11(11)11---------------------------|
E|-----------------------------------------------------------------|
:35

e|-----------------------------------------------------------------|
B|-----------------------------------------------------------------|
G|-13--------------------------------------------------------------|
D|----13-11-------------9-11--------9-11-----------13-11-----------|
A|----------11-9----9-11--------9-11----11-9------------11---------|
E|-----------------------------------------------------------------|
:49

e|-----------------------------------------------------------------|
B|-----------------------------------------------------------------|
G|-13--------------------------------------------------------------|
D|----13-11-------------9-11------13-11----------------------------|
A|----------11-9----9-11----------------11-------------------------|
E|-----------------------------------------------------------------|

e|-----------------------------------------------------------------|
B|-----------------------------------------------------------------|
G|-----------------------------------------------------------------|
D|--------------------9--------------------------------------------|
A|-9-11-11--11-11-11-----------------------------------------------|
E|-----------------------------------------------------------------|
1:13

e|-----------------------------------------------------------------|
B|-----------------------------------------------------------------|
G|--13-15-10-8-----------------------------------------------------|
D|------------------9-11-----------9-11---4/6/9/11\6\4--/13\11\6---|
A|--------------9-11----11-9---9-11--------------------------------|
E|-----------------------------------------------------------------|
1:50 (piano part) or just play what's below until the end of the song


e|-----------------------------------------------------------------|
B|-----------------------------------------------------------------|
G|-----------------------------------------------------------------|
D|-----------------------------------------------------------------|
A|-11(11)11-11(11)11-11(11)11-11(11)11--11(11)11--11(11)11---------|
E|-----------------------------------------------------------------|
Tap to rate this tab
 
# A B C D E F G H I J K L M N O P Q R S T U V W X Y Z