Song name
# A B C D E F G H I J K L M N O P Q R S T U V W X Y Z

Casiotone For The Painfully Alone - Bobby Malone Moves Home tab

Highlighted       Show chord diagrams
-------------------------------------------------------------------------------
BOBBY MALONE MOVES HOME - Casiotone For The Painfully Alone
-------------------------------------------------------------------------------
Tabbed by: Mikki 
Email: hilsmikki[@]gmail.com

Tuning: standard EADGBe

This song is build up by scheme, with a little theme in the chorus.

The chords are these:

C, C/B, Am x 2
C, C/B, Am, G

On guitar i play the chords open, like this:

C

e|-0-|
B|-1-|
G|-0-|
D|-2-|
A|-3-|
e|-X-|


C/B

e|-0-|
B|-1-|
G|-0-|
D|-2-|
A|-2-|
e|-X-|

Am

e|-0-|
B|-1-|
G|-2-|
D|-2-|
A|-0-|
e|-X-|


G

e|-3-|
B|-3-|
G|-0-|
D|-0-|
A|-2-|
e|-3-|


Then there is the theme. I play it this way.

e|---------------7--------|
B|--8-8-8-8--8--8-8-10-8--|
G|-9-9-9------------------|
D|-------9-10-10----------|
A|------------------------|
E|------------------------|

Think of it as a Em

e|-7-|
B|-8-|
G|-9-|
D|-9-|
A|-7-|
e|-X-|
Tap to rate this tab
# A B C D E F G H I J K L M N O P Q R S T U V W X Y Z