Song name
# A B C D E F G H I J K L M N O P Q R S T U V W X Y Z

Casper - Michael X tab

------------------|
------------------|
------------------|
-5-5-5-5-5-5-5----|x2
-5-5-5-5-3-3-5-5--|
----------------3-|

-------------------------------------|
---------------------3-3-3-3-3-3-3---|
-5-5-----------------3-3-3-3-3-3-3---|
-4-4-4-4-4-4-4-------2-2-2-2-2-2-2---|
-3-3-3-3-5-3-3-------1-1-1-1-1-1-1---|
---------------------0-0-0-0-0-0-0-0-|
Tap to rate this tab
# A B C D E F G H I J K L M N O P Q R S T U V W X Y Z