Song name
# A B C D E F G H I J K L M N O P Q R S T U V W X Y Z

Casper - So Perfekt tab

Casper: So Perfekt
Album:XOXO (2011)


1. Strophe

"... ganz allein zum Ball gegang'"

e|-----------------------------------------------|
B|---7~------------------7~--------4~------------|
G|-----4~--------6~--------4~--------6~----------|
D|-----------------------------------------------|
A|-----------------------------------------------|
E|-----------------------------------------------|

1. Refrain

e|-----------------------------------------------|\
B|-----------------------------------------------| \
G|-4(x29)-3-3-3----------------------------------|  \ x3
D|-----------------------------------------------|  /
A|-----------------------------------------------| /
E|-----------------------------------------------|/

e|-----------------------------------------------|
B|-----------------------------------------------|
G|-4(x16)-3-(x16)--------------------------------|
D|-----------------------------------------------|
A|-----------------------------------------------|
E|-----------------------------------------------|

e|-----------------------------------------------|\
B|-----------------------------------------------| \
G|-16-16-16-16-16-16-16-16-15-15-15-11-11-11-8-8-|  \3x
D|-----------------------------------------------|  /
A|-----------------------------------------------| /
E|-----------------------------------------------|/

e|-----------------------------------------------|
B|-----------------------------------------------|
G|-16-16-16-16-16-16-16-16-15-15-15-15-----------|
D|-----------------------------------------------|
A|-----------------------------------------------|
E|-----------------------------------------------|

2. Strophe (=1. Strophe)

"... rote Haare steht sie drauf"

e|-----------------------------------------------|
B|---7~------------------7~--------4~------------|
G|-----4~--------6~--------4~--------6~----------|
D|-----------------------------------------------|
A|-----------------------------------------------|
E|-----------------------------------------------|

2. Refrain (=1. Refrain)

e|-----------------------------------------------|\
B|-----------------------------------------------| \
G|-4(x29)-3-3-3----------------------------------|  \ x3
D|-----------------------------------------------|  /
A|-----------------------------------------------| /
E|-----------------------------------------------|/

e|-----------------------------------------------|
B|-----------------------------------------------|
G|-4(x16)-3-(x16)--------------------------------|
D|-----------------------------------------------|
A|-----------------------------------------------|
E|-----------------------------------------------|

e|-----------------------------------------------|\
B|-----------------------------------------------| \
G|-16-16-16-16-16-16-16-16-15-15-15-11-11-11-8-8-|  \3x
D|-----------------------------------------------|  /
A|-----------------------------------------------| /
E|-----------------------------------------------|/

e|-----------------------------------------------|
B|-----------------------------------------------|
G|-16-16-16-16-16-16-16-16-15-15-15-15-----------|
D|-----------------------------------------------|
A|-----------------------------------------------|
E|-----------------------------------------------|

Bridge: No Guitar

e|-----------------------------------------------|\
B|---4---4---4---4---4---4---4---4---------------| \
G|-4---4---4---4---4---4---4---4-----------------|  \x3
D|-----------------------------------------------|  /
A|-----------------------------------------------| /
E|-----------------------------------------------|/

e|-----------------------------------------------|
B|---16--16--16--16--16--16----------------------|
G|-16--16--16--16--16--16------------------------|
D|-----------------------------------------------|
A|-----------------------------------------------|
E|-----------------------------------------------|


3. Refrain + Outro

e|-----------------------------------------------|\
B|-----------------------------------------------| \
G|-16-16-16-16-16-16-16-16-15-15-15-11-11-11-8-8-|  \7x
D|-----------------------------------------------|  /
A|-----------------------------------------------| /
E|-----------------------------------------------|/

e|-----------------------------------------------|
B|-----------------------------------------------|
G|-15-(x12)--------------------------------------|
D|-----------------------------------------------|
A|-----------------------------------------------|
E|-----------------------------------------------|
Tap to rate this tab
# A B C D E F G H I J K L M N O P Q R S T U V W X Y Z