Song name
# A B C D E F G H I J K L M N O P Q R S T U V W X Y Z

Casper - Xoxo tab

Its my first tab, so thanks for feetback!


Intro:
|----------------|----------------|----------------|----------------|
|----------------|----------------|----------------|----------------|
|-0----0--3------|-0--------------|-0----0--3------|-0--------------|
|-1----------0---|-0----1--3--1---|-1----------0---|-0----1--3--1---|
|-3----------1---|----------------|-3----------1---|----------------|
|----------------|-3----------4---|----------------|-3----------4---|

Verse:
|----------------|----------------|----------------|----------------|
|----------------|----------------|----------------|----------------|
|---------0------|---------0---3--|---------3---0--|-------0h1p0----|
|-----1-------1--|-----0----------|-----0----------|----1--------1--|
|-3--------------|-1--------------|----------------|----------------|
|----------------|----------------|-3--------------|-4--------------| Repeat
Tap to rate this tab
# A B C D E F G H I J K L M N O P Q R S T U V W X Y Z