Song name
# A B C D E F G H I J K L M N O P Q R S T U V W X Y Z

Casper - Michael X tab

Michael X Intro
By Casper




e|-----------------3----------|
B|--5-5-5-5-3-3-5-5-----------|
G|--5-5-5-5-5-5-5-5-----------|
D|----------------------------|
A|----------------------------|
E|----------------------------|

e|----------------------------|
B|--3-3-3-3-3-3-3-3-----------|
G|--4-4-4-4-4-4-4-4-----------|
D|--5-5-5-5-5-5-5-5-----------|
A|----------------------------|
E|----------------------------|

e|--0-0-0-0-0-0-0-0-----------|
B|--1-1-1-1-1-1-1-1-----------|
G|--2-2-2-2-2-2---------------|
D|--3-3-3-3-3-3-3-3-----------|
A|--3-3-3-3-3-3-3-3-----------|
E|----------------------------|
Tap to rate this tab
 
# A B C D E F G H I J K L M N O P Q R S T U V W X Y Z