Song name
# A B C D E F G H I J K L M N O P Q R S T U V W X Y Z

Casper - Die Letzte Gang Der Stadt tab

e|---------------------------------------------|
B|---------------------------------------------|
G|--------------14-11~-------11-------11-11----|
D|-----12-14-12--------12-14----12-14----------|
A|---------------------------------------------|
E|---------------------------------------------|

    ...und die Top40 Band, spielt das letzte Lied im Schützenheim...

e|---------------------------------------------|
B|---------------------------------------------|
G|--------------14-11~-------11-------11-14----|
D|-----12-14-12--------12-14----12-14----------|
A|---------------------------------------------|
E|---------------------------------------------|

Habs vor ein paar Tagen gelernt, wird 100%ig so gespielt!

Der Rest des Songs (Bass, und der kurze Strum zwischendrin) folgt ;)
Tap to rate this tab
# A B C D E F G H I J K L M N O P Q R S T U V W X Y Z