Guitaretab - guitar tabs
Song name
# A B C D E F G H I J K L M N O P Q R S T U V W X Y Z

Caspi Matti - Makom Ledeaga tab

#----------------------------------PLEASE NOTE---------------------------------#
#This file is the author's own work and represents their interpretation of the #
#song. You may only use this file for private study, scholarship, or research. #
#------------------------------------------------------------------------------##
Date:     Sat,  16 Dec 95 22:45 +0300
From: ANNA NANES 
Subject:  TAB: makom lede'aga by Mati Caspi


        ________________________
         Makkom Lede'agga
         Music by Matti Caspi*
        ~~~~~~~~~~~~~~~~~~~~~~~~
 Lyrics by Yonatan Gefen
 digitized by  ~| |\ \|/

Note that the original song is probably performed a bit lower,
But you can easily transpose the chords...


moderately

    B                 B5+               B6                B5+
E-------0---------|-------0---------|-------0---------|-------0---------|
B---4-------4---4-|---4-------4---4-|---4-------4---4-|---4-------4---4-|
G-----4-------4---|-----4-------4---|-----4-------4---|-----4-------4---|
D-4---------------|-5---------------|-6---------------|-5---------------|
A-----------------|-----------------|-----------------|-----------------|
E-----------------|-----------------|-----------------|-----------------|


                                                      +-----------------+
   Em7                A4                Bm            I (1)    F#7,5+   I
E-------0---------|-----------------|-------2-------2-|---------2------- ||
B---------3-0---0-|---------4-2---2-|---------3-------|-------3---------o||
G-----0-------0---|-----2-------2---|-----4-----4-----|-----3----------- ||
D---2-------------|---2---2---------|---4---------4---|---2-------------o||
A-2---------------|-0---------------|-2---------------|-4--------------- ||
E-----------------|-----------------|-----------------|----------------- ||

[ Tab from: http://www.guitaretab.com/c/caspi-matti/3153.html ]
+-----------------+
I (2)    C#0      I   Em                Em5+              Em6
E-------0---------|-----------------|-----------------|-----------------|
B---4-------4---4-|---------0-------|---------0-------|---------0-------|
G-----4-------4---|-----0-----0---2-|-----0-----0---2-|-----0-----0---2-|
D-4---------------|---2---2-----2---|---2---2-----2---|---2---2-----2---|
A-----------------|-2---------------|-3---------------|-4---------------|
E-----------------|-----------------|-----------------|-----------------|


    EM5+               B7               Em               F#7,5+
E-----------------|---------2-------|---------0-------|---------2-------|
B---------0-------|-------4---4---4-|-------0-------0-|-------3---3---3-|
G-----0-----0---2-|-----2-------2---|-----0-------0---|-----3-------3---|
D---2---2-----2---|---4-------------|---2-------2-----|---2-------------|
A-3---------------|-2---------------|-2---------------|-4---------------|
E-----------------|-----------------|-----------------|-----------------|


    Bm               D(4?)             Fm                 C
E---------2-------|-------2-3-2---2-|---------2-----2-|---------3-------|
B-------3---------|-----3-------3---|-------2-----2---|-------5---5---5-|
G-----4-----------|---2-------------|-----2-----4-----|-----5-------5---|
D---4-------------|-0---------------|---4-------------|---5-------------|
A-2---------------|-----------------|-4---------------|-3---------------|
E-----------------|-----------------|-----------------|-----------------|

    Bm               C                 C
E---------2-----2-|---------3-------|---------3-------|
B-------3---------|-------5---5---5-|-------5---5---5-|
G-----4-------4---|-----5-------5---|-----5-------5---|
D---4-------4-----|---5-------------|---5-------------|
A-2---------------|-3---------------|-3---------------|
E-----------------|-----------------|-----------------|


    B                 A                 G                 F7,5+         *
E-------0---------|-----------------|-----------------|---------2------- ||
B---4-------4-----|---2---3---2-----|---0---1---0-----|-------3---------o||
G-----4-------4---|-----2-------2---|-----0-------0---|-----3----------- ||
D-4---------------|-3---------------|-0---------------|---2-------------o||
A-----------------|-----------------|-----------------|-4--------------- ||
E-----------------|-----------------|-----------------|----------------- ||


Last cHORD

  ~    B
|-2----------|
|-4----------|
|-4----------|
|-4----------|
|-2----------|
|------------|

*The greaT

"lo omrim le-chips al ha-esh 'nu!'"(m.caspi)

Ania
.