Song name
# A B C D E F G H I J K L M N O P Q R S T U V W X Y Z

Cass Mccombs - Dealing tab


                             -CASS MCCOMBS-

                                Dealing

                          (Big Wheel and Others)




        There are a few uncommon chords in this tune, so here are the shapes

        for a better understanding of the tab:


        A-------(X02220) and at the first "let ring" part (577655-|
        Adim----(x0121--------------------------------------------|x)
        A#dim---(x1232--------------------------------------------|x)
        E-------(022100-------------------------------------------|
        Eaug----(032110-------------------------------------------|
        Bm------(x24432-------------------------------------------|
        Bm7-----(x04432-------------------------------------------|
        F#------(244322-------------------------------------------|
        F#m-----(244222-------------------------------------------|
        F#dim7--(X34242)
        C#------(x46664)
        C#m-----(x46654)





          I think the tab is 100% correct. Hope you enjoy it and please,

          donīt forget to rate it.



     Capo on 3rd:


    PART 1:


         Adim            A             A#dim             F#

    e[----------------------------------------------------2------2------|
    B[---1------1--------2------2--------2------2--------------2-----2--|
    G[--------2-----2---------2-----2---------3-----3--------3-----3----|
    D[------1-----1---------2-----2---------2-----2---------------------|
    A[---0---------------0---------------1------------------------------|
    E[----------------------------------------------------2-------------|


         Bm               Bm7              E                E aug
    e[---2------2---------2------2-------------------------------------------|
    B[--------3----3-----------3-----3-----0------0---------1------1---------|
    G[------4----------------4------------------1----------------1-----------|
    D[----------------------------------------2-----2----------2-----2-------|
    A[---2----------------0---------------------------------3----------------|
    E[-------------------------------------0---------------------------------|


        A                       A
    e[--------------------------5-----------------|
    B[--2------2----------------5-----------------|
    G[-------2------------------6----LET RING-----| X2    Then:
    D[-----2-----2--------------------------------|
    A[--0-----------------------0-----------------|
    E[--------------------------------------------|



    PART 2:


       Adim            A             A#dim             F#

    e[----------------------------------------------------2------2------|
    B[---1------1--------2------2--------2------2--------------2-----2--|
    G[--------2-----2---------2-----2---------3-----3--------3-----3----|
    D[------1-----1---------2-----2---------2-----2---------------------|
    A[---0---------------0---------------1------------------------------|
    E[----------------------------------------------------2-------------|


         Bm               Bm7
    e[---2------2---------2------2-------|
    B[--------3----3-----------3-----3---|    And now comes a
    G[------4----------------4-----------|
    D[-----------------------------------|    different part:
    A[---2----------------0--------------|
    E[-----------------------------------|





        C#m           F#m           C#m           F#m           C#m
    e[--4------4------2------2------4------4------2------2------4------4-|
    B[-------5-------------2-------------5-------------2-------------5---|
    G[-----6-------------2-------------6-------------2-------------6-----|
    D[-------------------------------------------------------------------|
    A[--4---------------------------4---------------------------4--------|
    E[----------------2---------------------------2----------------------|


        F#m            Bm          F#dim7        C#               C#
    e[---2------2-----2------2-----2------2-----------------------4-------|
    B[--------2------------3------------4--------6-------7p6------6-------|
    G[------2------------4------------2---------------6-----------6---LET-|
    D[----------------------------------------------6-------------6--RING-|
    A[----------------2------------3-------------4----------------4-------|
    E[---2----------------------------------------------------------------|




          After this you have to play:


                          PART 1 X6

                          PART 2 X1



                      END. HOPE YOU ENJOY IT.
Tap to rate this tab
 
# A B C D E F G H I J K L M N O P Q R S T U V W X Y Z