Song name
# A B C D E F G H I J K L M N O P Q R S T U V W X Y Z

Cassandra - Cinta Terbaik tab

Intro 
(backsound)
e|--------------------------------------|
B|--------------------------------------|
G|--------------------------------------|
D|--------------------------------------|
A|-----3--6--4--6--4--6-----3--6-----6--|
E|--4--------------------4--------6-----|

Kemudian ulangi tab di atas beserta tab ini

e|--------------------------------------|
B|--------4-----------------------------|
G|--5--3-----5--3--5h6p5--3--5----------|
D|--------------------------------------|
A|--------------------------------------|
E|--------------------------------------|

G                     C
Jujur saja ku tak mampu
D               G    D   Em
hilangkan wajahmu dihatiku
                    C
meski malam mengganggu
D                G    D   Em
hilangkan senyummu dimataku
Am      D                G
ku sadari aku cinta padamu

    C        D            Bm
Meski ku bukan yang pertama
    E    Am    D         G
dihatimu tapi cintaku terbaik untukmu
      C   D             B      Em
meski ku bukan bintang di langit
Am              D       G
tapi cintaku yang terbaik

G                     C
Jujur saja ku tak mampu
D               G    D   Em
hilangkan wajahmu dihatiku
                    C
meski malam mengganggu
D                G    D   Em
hilangkan senyummu dimataku
Am      D                G
ku sadari aku cinta padamu

    C        D            Bm
Meski ku bukan yang pertama
    E    Am    D         G
dihatimu tapi cintaku terbaik untukmu
      C   D             B      Em
meski ku bukan bintang di langit
Am              D       G
tapi cintaku yang terbaik

e|--------------------------------------|
B|--------------------------------------|
G|--------------------------------------|
D|--------------------------------------|
A|-----3--6--4--6--4--6-----3--6-----6--|
E|--4--------------------4--------6-----|

e|--------------------------------------|
B|--------4-----------------------------|
G|--5--3-----5--3--5h6p5--3--5----------|
D|--------------------------------------|
A|--------------------------------------|
E|--------------------------------------|

    C        D            Bm
Meski ku bukan yang pertama
    E    Am    D         G
dihatimu tapi cintaku terbaik untukmu
      C   D             B      Em
meski ku bukan bintang di langit
Am              D       G
tapi cintaku yang terbaik oou..

    C        D            Bm
Meski ku bukan yang pertama
    E    Am    D         G
dihatimu tapi cintaku terbaik untukmu
      C   D             B      Em
meski ku bukan bintang di langit
Am              D       G       Em
tapi cintaku yang terbaik (cintaku yang terbaik)
Am              D       G       Em
tapi cintaku yang terbaik (cintaku yang terbaik)
Am        D             G
tapi cintaku yang terbaik

Mohon maaf kalo tabnya kurang pas ^_^ 
By: nugrahaabi
Tap to rate this tab
 
# A B C D E F G H I J K L M N O P Q R S T U V W X Y Z