Song name
# A B C D E F G H I J K L M N O P Q R S T U V W X Y Z

Cassie - Cant Do It Without You tab

e-----------------------------------------------------------|
b-----------------------------------------------------------|
g-----------------------------------------------------------|
D----8-8-8-6----------8-8-8-6-------------------------------|
A------------6-6--------------6-6---------8-8-8-6----6------|
E-------------------------------------------------6---------|

 ------------------------------------------------------------|
 ------------------------------------------------------------|
 ------------------------------------------------------------| Just repeat this
 ------------------------------------------------------------| throughout the
 ----8-8-8-6-----6-8-9---------------------------------------| whole song...
 -------------6----------------------------------------------|


*You can also play this with Capo on 6 (which isn't hard to figure out), but I prefer it without..

Enjoy!
                                                                  JLR
Tap to rate this tab
# A B C D E F G H I J K L M N O P Q R S T U V W X Y Z