Guitaretab - guitar tabs
Song name
# A B C D E F G H I J K L M N O P Q R S T U V W X Y Z

Cassino - Take Cover tab

-----------------------------------------------------------------------------
			     Take Cover - Cassino
-----------------------------------------------------------------------------

Tuning:Drop C (CGCFAD)
Tabbed by:James Marsh
[ Tab from: http://www.guitaretab.com/c/cassino/159403.html ]
(Intro/Verse)
D|-------0---------0--------0---------0---|
A|----------------------------------------|
F|---5---------5--------------------------|Repeat
C|-3---3-----3---3------3---------3-------|
G|--------------------0---0-----0---0-----|
C|----------------------------------------|
  She's a liar....
(Prechorus)
D|----------0------3-----3-----3----------|
A|----------------------------------------|
F|------5-----5------5-----5----- 5-------|
C|----3---3-----3------3-----3-----3------|
G|----------------------------------------|
C|--3-------------------------------------|
  I don't want to be the one who....
(Chorus)
D|-----------------------------------------|
A|-----------------------------------------|
F|-----------------------------------------|
C|--22-3-33-333-5-55-555-7-77-777-5-55-555-|Repeat
G|--22-3-33-333-5-55-555-7-77-777-5-55-555-|
C|--22-3-33-333-5-55-555-7-77-777-5-55-555-|
  Caught you, so take cover....

(Verse 2)
D|------------3-------------------------3------------|
A|-----------------6--------------------------6--5---|
F|--5----5------5----5-----5-----5--------5-----5-5--|Repeat
C|-----3----3-----3----3-------3-----3------3--------|
G|---3----3------------------0-----0-----------------|
C|---------------------------------------------------|
  She starts feeling on her own....
(Interlude)
D|---------------------------------------------------------------------------|
A|---------------------------------------------------------------------------|
F|---------------------------------------------------------------------------|
C|--8-8-8-8-8-8-8-8-0-0-0-0-0-0-0-0-8-8-8-8-8----8----8----8----8------------|
G|--8-8-8-8-8-8-8-8-0-0-0-0-0-0-0-0-8-8-8-8-8----8----8----8----8------------|
C|--8-8-8-8-8-8-8-8-0-0-0-0-0-0-0-0-8-8-8-8-8----8----8----8----8------------|

(Verse)
(Prechorus)
(Chorus)
(Verse 2)
(Prechorus)
(Chorus)
(Interlude)
(Chorus(Piano))
(Chorus)

=============================================================================
Related for Take Cover tab