Song name
# A B C D E F G H I J K L M N O P Q R S T U V W X Y Z

Cassino - New Jerusalem tab

Help us improve GuitareTab! Take a short survey!
-------------------------------------------------------------------------------
			     New Jerusalem-Cassino
-------------------------------------------------------------------------------

I am 100% sure about this. I have seen them play it 3 times. I got lazy, and didn't feel 
tabbing Tyler's part.

Tabbed by:cory e
Email:coryemerson@insightbb.com

Capo 4th Fret

  Verse(strum the chords)
     E       Asus2     E     Asus2     B    
Asus2
e|---0--------0--------0-------0-------0------0----------------------------|
B|---0--------0--------0-------0-------0------0----------------------------|
G|---1--------2--------1-------2-------4------2----------------------------|
D|---2--------2--------2-------2-------4------2----------------------------|
A|---2--------0--------2-------0-------2------0----------------------------|
E|---0-----------------0---------------------------------------------------|

   Pre-Chorus
     C#     B    Asus2
e|---0------0-----0--------------------------------------------------------|
B|---0------0-----0--------------------------------------------------------|
G|---6------4-----2--------------------------------------------------------|
D|---6------4-----2--------------------------------------------------------|
A|---4------2-----0--------------------------------------------------------|
E|-------------------------------------------------------------------------|

  Chorus
                               End Song On:
e|----0------0--------------------------------0----------------------------|
B|----0------0--------------------------------0----------------------------|
G|----2------1--------------------------------1----------------------------|
D|----2------2--------------------------------2----------------------------|
A|----0------2--------------------------------2----------------------------|
E|-----------0--------------------------------0----------------------------|

 Tyler's part in the chorus goes something like this:

e|-----0-------0-------0-------4-------------------------------------------|
B|---0---0---0---0---0---0---0---0-----------------------------------------|
G|-9-------8-------6-------4-----------------------------------------------|
D|-------------------------------------------------------------------------|
A|-------------------------------------------------------------------------|
E|-------------------------------------------------------------------------|


===============================================================================
Related for New Jerusalem tab