Song name
# A B C D E F G H I J K L M N O P Q R S T U V W X Y Z

Cassino - Platano tab

-------------------------------------------------------------------------------
			     Platano-Cassino
-------------------------------------------------------------------------------
Tabbed by:cory emerson
Email:coryemerson@insightbb.com

Tuning: Standard Capo 2nd Fret

Here's another great song for everyone. As I promised here it is.

  Verse

e|--7-----7--------5-----5-------7-----7--7~---------------------------------|
B|----8-----8--------4-----4-------5----5------------------------------------|
G|--9---9----------4---4---------5---5----5~---------------------------------|
D|---------------------------------------------------------------------------|
A|---------------------------------------------------------------------------|
E|---------------------------------------------------------------------------|
 |
e|---------------------------------------------------------------------------|
B|---------------------------------------------------------------------------|
G|---------------------------------------------------------------------------|
D|---------------------------------------------------------------------------|
A|---------------------------------------------------------------------------|
E|---------------------------------------------------------------------------|

e|--3-----3-----3-----3----3-----3----3---2~---------------------------------|
B|----3-----3-----5-----5----3-----3----2------------------------------------|
G|------4-------5---5----------4------2--------------------------------------|
D|--5----------------------5-------------------------------------------------|
A|---------------------------------------------------------------------------|
E|---------------------------------------------------------------------------|
 |
e|---------------------------------------------------------------------------|
B|------7h8p7-------7h8p7------7h8p7-----------------------------------------|
G|----0-----------0----------0----------0------------------------------------|
D|--9-----------7----------9----------7--------------------------------------|
A|----------------------------------------7~---------------------------------|
E|---------------------------------------------------------------------------|

e|--7-----7---5-----5---7-----7---7~-----------------------------------------|
B|----8-----8---4-----4---5-----5--------------------------------------------|
G|--9---9-----4---4-----5---5-----5~-----------------------------------------|
D|---------------------------------------------------------------------------|
A|---------------------------------------------------------------------------|
E|---------------------------------------------------------------------------|
 |
e|--7-----7----10----12----8----7~-------------------------------------------|
B|----8-----8-----12----12---10----------------------------------------------|
G|--9---9------11----------9-------------------------------------------------|
D|---------------------------------------------------------------------------|
A|---------------------------------------------------------------------------|
E|---------------------------------------------------------------------------|

e|--3-----3-----3-----3----3-----3----3---2~---------------------------------|
B|----3-----3-----5-----5----3-----3----2------------------------------------|
G|------4-------5---5----------4------2--------------------------------------|
D|--5----------------------5-------------------------------------------------|
A|---------------------------------------------------------------------------|
E|---------------------------------------------------------------------------|
 |
e|---------------------------------------------------------------------------|
B|------7h8p7-------7h8p7------7h8p7-----------------------------------------|
G|----0-----------0----------0----------0------------------------------------|
D|--9-----------7----------9----------7--------------------------------------|
A|----------------------------------------7~---------------------------------|
E|---------------------------------------------------------------------------|

e|--7-----7---5-----5---7-----7---7~-----------------------------------------|
B|----8-----8---4-----4---5-----5--------------------------------------------|
G|--9---9-----4---4-----5---5-----5~-----------------------------------------|
D|---------------------------------------------------------------------------|
A|---------------------------------------------------------------------------|
E|---------------------------------------------------------------------------|
 |
e|-------------7/10\7-------------7~-----------------------------------------|
B|-/8---8/10\8--------10--8-8/10--8~-----------------------------------------|
G|--------------------------------9~-----------------------------------------|
D|---------------------------------------------------------------------------|
A|---------------------------------------------------------------------------|
E|---------------------------------------------------------------------------|

e|--3-----3-----3-----3----3-----3----3---2~---------------------------------|
B|----3-----3-----5-----5----3-----3----2------------------------------------|
G|------4-------5---5----------4------2--------------------------------------|
D|--5----------------------5-------------------------------------------------|
A|---------------------------------------------------------------------------|
E|---------------------------------------------------------------------------|
 |
e|---------------------------------------------------------------------------|
B|------7h8p7-------7h8p7------7h8p7-----------------------------------------|
G|----0-----------0----------0----------0------------------------------------|
D|--9-----------7----------9----------7--------------------------------------|
A|----------------------------------------7~---------------------------------|
E|---------------------------------------------------------------------------|

 Pre-Chorus
                                 rake------------------------------------------|
e|--0~----------0~------------------------------0~-----------------------------|
B|--0~----------1~----------0~----------------0--------------------------------|
G|--0~----------0~----------2~--------------0----------------------------------|
D|--2~----------2~----------1~------------2------------------------------------|
A|--2~----------0~----------2~----------2--------------------------------------|
E|--0~--------------------------------0----------------------------------------|

then Em-G-Am7-C


Chorus

Yeah, sorry about the lack of tabs for the chorus.  If you fingerpick it or strum it you 
be good.  I really don't know all the little stuff they do in it.

 Em-G-Am7-C
 Em-C-B7-Am7

Post-Chorus

Guitar 1 continues with the chorus chords while guitar 2 plays this

e|---------------------------------------------------------------------------|
B|------------------------------0---0-----0----0----0------------------------|
G|---------7~--------------7------------7---------4----5p4-2p0-----2p0-------|
D|-----7/9----9-7--------5----9---7----------7-----------------2h5-----------|
A|----------------10~-/7-----------------------------------------------------|
E|--0------------------------------------------------------------------------|

e|--3-----3-----3-----3----3-----3----3---2~---------------------------------|
B|----3-----3-----5-----5----3-----3----2------------------------------------|
G|------4-------5---5----------4------2--------------------------------------|
D|--5----------------------5-------------------------------------------------|
A|---------------------------------------------------------------------------|
E|---------------------------------------------------------------------------|


Verse

Pre-chorus

Chorus

Outro- The outro is crazy.  Just play the chorus chords and you should be good.  There's 
that I know are different, but it works.  Tyler just goes into his own little world 
so yeah. All in all if you learn one thing from this outro it should be that Cassino is god.


| \  slide down
| h  hammer-on
| p  pull-off
| ~  vibrato
| +  harmonic
| x  Mute note
===============================================================================
Tap to rate this tab
 
# A B C D E F G H I J K L M N O P Q R S T U V W X Y Z