Song name
# A B C D E F G H I J K L M N O P Q R S T U V W X Y Z

Cast - Live The Dream tab

Live The Dream
                                        CAST
                                 MOTHER NATURE CALLS

              Solo:

             E|-------------------------------------------------------|
             B|----------------------------14b16-14b16b14-14b16b14-11-|
             G|-13b15-13b15b13-13b15b13-11----------------------------|
             D|-------------------------------------------------------|
             A|-------------------------------------------------------|
             E|-------------------------------------------------------|

             E|-------------------------------------------------------|
             B|----11-14-11----11-------------------------------------|
             G|-13----------13-------------13b15-13b15b13-13b15b13-11-|
             D|-------------------------------------------------------|
             A|-------------------------------------------------------|
             E|-------------------------------------------------------|

             E|-------------14----------------------------------------------|
             B|-14b16-14b16hold16b14-11----11-14-11----11-------------------|
             G|-------------------------13----------13-------13b15-13b15-11-|
             D|-------------------------------------------11----------------|
             A|-------------------------------------------------------------|
             E|-------------------------------------------------------------|

This is the first tab I have ever done.
I decided to redo this tab cuz the guy who did it originally didnt know what he was doing. 
It may not be exactly right but its pretty close. 
If you dont like it then redo it.

Tap to rate this tab
# A B C D E F G H I J K L M N O P Q R S T U V W X Y Z