Song name
# A B C D E F G H I J K L M N O P Q R S T U V W X Y Z

Cast - Live The Dream tab

                                   Live The Dream
                                        CAST
                                 MOTHER NATURE CALLS

              Solo: [1:46]

             E|------------------12-12-10-12-10-7-------------------|
             B|-12-12-10-12-10-8------------------10-12-15-12-10-12-|
             G|-----------------------------------------------------|
             D|-----------------------------------------------------|
             A|-----------------------------------------------------|
             E|-----------------------------------------------------|

             E|------------------12-12-15-12-10-7-------------------|
             B|-12-12-10-12-10-8------------------10-12-15-12-10-12-|
             G|-----------------------------------------------------|
             D|-----------------------------------------------------|
             A|-----------------------------------------------------|
             E|-----------------------------------------------------|

             E|-10-12-12-10/8---------------------------------------|
             B|-----------------------------------------------------|
             G|-----------------------------------------------------|
             D|-----------------------------------------------------|
             A|-----------------------------------------------------|
             E|-----------------------------------------------------|

No one in U-G and anywhere else have tabbed the solo part of this great song. So I 
took the time to listen and tab out the song! I'm 99% sure that this is correct. Enjoy and 
rate good!
Tap to rate this tab
# A B C D E F G H I J K L M N O P Q R S T U V W X Y Z