Song name
# A B C D E F G H I J K L M N O P Q R S T U V W X Y Z

Castanets - First Lights Freeze tab

-------------------------------------------------------------------------------
			     FIRST LIGHT'S FREEZE - Castanets
-------------------------------------------------------------------------------
Tabbed by: insideblasts
Email: esherah@gmail.com

Castanets' First Light's Freeze from the self-titled album.
Very easy to play. Beautiful song. Enjoy!

Tuning:

Intro :

e|-----0--0h1--0--3--1--0--1p0-----0-----------------------------------------|
B|--3---------------------------3-----3p1--1---------------------------------|
G|--------------------------------------------2------------------------------|
D|---------------------------------------------------------------------------|
A|---------------------------------------------------------------------------|
E|---------------------------------------------------------------------------|

When singing (and outro) :

e|--------------------------------0------------------------------------------|
B|--3--1--------------------1--3-----3--1--3--1------------------------------|
G|--------2--0--2--0-----2-----------------------2---------------------------|
D|--------------------2------------------------------------------------------|
A|---------------------------------------------------------------------------|
E|---------------------------------------------------------------------------|

e|---------------------------------------------------------------------------|
B|--3--1---------------------------------------------------------------------|
G|--------2--0--2--0-----0h2-------------------------------------------------|
D|--------------------2-------0--2--0----------------------------------------|
A|-------------------------------------3--0----------------------------------|
E|---------------------------------------------------------------------------|
Tap to rate this tab
 
# A B C D E F G H I J K L M N O P Q R S T U V W X Y Z