Song name
# A B C D E F G H I J K L M N O P Q R S T U V W X Y Z

Castanets - Good Friend Yr Hunger tab

http://asthmatickitty.com/musicians.php?artistID=2

Castanets
Good Friend, Yr Hunger
First Light’s Freeze
Asthmatic Kitty Records

Capo 4th

Banjo Tuning

Part I

   Friend I cannot        Befriend You True
D|---------------------2------------------------2---|
B|-----------------1------------------------1-------|
G|----------------2--2---------------------2--2-----|
D|---------------2----2-------------------2----2----|
A|
E|

  In Searching For        
D|---------------------2----|
B|-----------------1--------|
G|----------------2--2------|
D|---------------2----2-----|
A|
E|

Part II

My Light in You…
D|---------------------2-----------------------|
B|-----------------1------1--------------------|
G|----------------2--2------2---(2)------------|
D|---------------2----2--------2---------------| (x4)
A| 
E|

Part III

D|----------------2---------0--------------------------|
B|---1------1--------1----------1-----------1----------|
G|--2--2---2--2-----2--2------2---1-------2---2--------|
D|-2----2-2----2--2------2--2-------2-0h2-------2------|
A|
E|

Part II 

Etc…


Tap to rate this tab
# A B C D E F G H I J K L M N O P Q R S T U V W X Y Z