Song name
# A B C D E F G H I J K L M N O P Q R S T U V W X Y Z

Casting Crowns - Here I Go Again tab

----------------------------------------------------------------------|             
Here I Go Again - Casting Crowns
----------------------------------------------------------------------|

Tabbed by: David Winyard
Email: dcwinyard@msn.com

Tuning: Drop D

These are the electric guitar parts for this song.
All of it is with Distortion

Intro/Verse: no electric guitar

Chorus:

e|------------------------------------|
B|------------------------------------|
G|------------------------------------|
D|-8---8--8--883--3--335--3--1--1--1--| 2x
A|-8---8--8--883--3--335--3--1--1--1--|
D|-8---8--8--883--3--335--3--1--1--1--|

Then:

e|----------------------------|
B|----------------------------|
G|----------------------------|
D|-1--1--118--8--83--3--3--1--|
A|-1--1--118--8--83--3--3--1--|
D|-1--1--118--8--83--3--3--1--|

Second Verse: no electric guitar

Chorus:

e|------------------------------------|
B|------------------------------------|
G|------------------------------------|
D|-8---8--8--883--3--335--3--1--1--1--| 2x
A|-8---8--8--883--3--335--3--1--1--1--|
D|-8---8--8--883--3--335--3--1--1--1--|

Then:

e|----------------------------|
B|----------------------------|
G|----------------------------|
D|-1--1--118--8--83--3--3--1--|
A|-1--1--118--8--83--3--3--1--|
D|-1--1--118--8--83--3--3--1--|

Then it leads straight into the Solo:

e|-----------------------------------------|
B|-----------------------------------------|
G|------0-0--------------------------------|
D|--0-3-----3-0---0-3-0-------3------------|
A|--------------3-------3-1-3---3-1-0-1-3--|
D|-----------------------------------------|

e|------------------------------------3---------|
B|--------------------------------1/3------6-4--|
G|------0-0----------------------------3/5------|
D|--0-3-----3-0---0-3-0-------3-----------------|
A|--------------3-------3-1-3---3---------------|
D|----------------------------------------------|

Rythem under the Solo:

e|------------------------------------|
B|------------------------------------|
G|------------------------------------|
D|--135--5--58--8--83--3--31--135--5--|
A|--135--5--58--8--83--3--31--135--5--|
D|--135--5--58--8--83--3--31--135--5--|

e|--------------------------------|
B|--------------------------------|
G|--------------------------------|
D|--58--8--83--3--355--33--1------|
A|--58--8--83--3--355--33--1-Hold-|
D|--58--8--83--3--355--33--1------|

Chorus:

e|------------------------------------|
B|------------------------------------|
G|------------------------------------|
D|-8---8--8--883--3--335--3--1--1--1--| 2x
A|-8---8--8--883--3--335--3--1--1--1--|
D|-8---8--8--883--3--335--3--1--1--1--|

End on:

e|-------------------------|
B|-------------------------|
G|-------------------------|
D|-55------33------1-------| 2x
A|-55-Mute-33-Mute-1-Hold--|
D|-55------33------1-------|


I'd appreciate any feedback you can give! Hope you like it!
In Christ,
David
Tap to rate this tab
 
# A B C D E F G H I J K L M N O P Q R S T U V W X Y Z