Guitaretab - guitar tabs
Song name
# A B C D E F G H I J K L M N O P Q R S T U V W X Y Z

Casting Crowns - Who Am I tab

Who I Am
Casting Crowns
Key C
this is only the intro..find the Casting Crowns chords version on Key C and Follow the 
[ Tab from: ]
E -----------------------------0-------------|
B --1--1--0--1--1--0--1----1--3-3-1-0---0----|
G --0--0--0--0--0--0--0----------------------|
D ------------------------------------0------|
A --3--------3--------3----------------------|
E -------------------------------------------|

E -----------------------3-----|
B --1--1--0--1--1--0-----------|
G --0--0--0--0--0--0--0--------|
D -----------------------------|
A --3--------3-----------------|
E --------------------3--------|

By rOycee_06
Related for Who Am I tab