Song name
# A B C D E F G H I J K L M N O P Q R S T U V W X Y Z

Casting Crowns - Praise You With The Dance tab

This is the fiddle playing on guitar and the little face off between the guitar 
and the fiddle it took me and hour or two its not perfect but it sounds 98% right on so enjoy!

e---------15--------------------------------------------|
b-13-15h17--17p15-13h15h17-13-13h15h17-17p15-13h15h17---|
g----------------------------------------------------12-|
d-------------------------------------------------------|
a-------------------------------------------------------|
E-------------------------------------------------------|

e----------15-------------------------|
b-13-15h17----17p15-13h15h17-17p15----|
g----------------------------------17-|
d-------------------------------------|
a-------------------------------------|
e-------------------------------------|

e-15-12-12-12h13p12-------------15----------------------|
b-------------------13-13h15h17----17p15-13h15h17p15----|
g---------------------------------------------------12--|
d-------------------------------------------------------|
a-------------------------------------------------------|
E-------------------------------------------------------|

e----------15-------------------------|
b-13-15h17----17p15-13h15h17-17p15----|
g----------------------------------17-|
d-------------------------------------|
a-------------------------------------|
e-------------------------------------|

"What do you think if that fiddle playin' right there?"
long pause....
the little face off now:
fiddle....            electric guitar....
e---------------15-|-------------------|
b-13-13-15-15h17---|-5-7-6-5-7-3-5-1-3-|
g------------------|-------------------|
d------------------|-------------------|
a------------------|-------------------|
e------------------|-------------------|

e----------------15-|---------|
b-13-13-15-15h17----|-555-6-5-|
g-------------------|-555-5-5-|
d-------------------|---------|
a-------------------|---------|
E-------------------|---------|

e------------------17---------|------------------|
b-15-15-15h17-17h19--19-15-19-|-5-3-5-3---3h5p3--|
g-----------------------------|--------2-2-----2-|
d-----------------------------|------------------|
a-----------------------------|------------------|
e-----------------------------|------------------|

e------------------17---------|-------------------|
b-15-15-15h17-17h19--19-15-19-|-3-5-3-3-3/5h7p5-3-|
g-----------------------------|-------------------|
d-----------------------------|-------------------|
a-----------------------------|-------------------|
e-----------------------------|-------------------|



e-------------------19---------|-------------------|
b--17-17-17h19-19h21--21-19-21-|-3-5-3-3-3/5h7p5-3-|
g------------------------------|-------------------|
d------------------------------|-------------------|
a------------------------------|-------------------|
e------------------------------|-------------------|


e-------------------19---------|-------------------|
b--17-17-17h19-19h21--21-19-21-|-3-5-3-3-3/5h7p5-5-|
g------------------------------|-------------------|
d------------------------------|-------------------|
a------------------------------|-------------------|
e------------------------------|-------------------|

e-19-16-16-16h17p16------------19---------------------|
b------------------17-17-19h21---21p19-17h19h21p19----|
g--------------------------------------------------16-|
d-----------------------------------------------------|
a-----------------------------------------------------|
e-----------------------------------------------------|

e---------19------------------------------------------|
b-17-19h21--21p19-17h19h21p19-17-17h19-21-21p19p17-17-|
g-----------------------------------------------------|
d-----------------------------------------------------|
a-----------------------------------------------------|
e-----------------------------------------------------|

e---------19------------------------------------------|
b-17-19h21--21p19-17h19h21p19-17-17h19-21-21p19p17-17-|
g-----------------------------------------------------|
d-----------------------------------------------------|
a-----------------------------------------------------|
e-----------------------------------------------------|
now here is the ending part...
fiddle...
e-------------------19---------|
b--17-17-17h19-19h21--21-19-21-|
g------------------------------|
d------------------------------|
a------------------------------|
e------------------------------|
electric...
e------------7------|
b-5-5-5h7-7h9-9-7-9-|
g-------------------|
d-------------------|
a-------------------|
e-------------------|

fiddle...
e-------------------19--------------------24?| i only have 21 frets XD
b--17-17-17h19-19h21--21-19-21-17h19-19h21---|
g--------------------------------------------|
d--------------------------------------------|
a--------------------------------------------|
e--------------------------------------------|
thats it hope its as good as i think it sounds peace out girl scout XD God bless
Tap to rate this tab
# A B C D E F G H I J K L M N O P Q R S T U V W X Y Z