Song name
# A B C D E F G H I J K L M N O P Q R S T U V W X Y Z

Casting Crowns - Until The Whole World Hears tab

This is a great new song by one of the best christian bands out there. Its pretty much 
lead throughout the whole song. This is my first tab so if you have any comments or 
email me at ihamilton0005@kctcs.edu

|-----------------------|
|-----------------------|
|-----------------------|x2
|-----------8-x-8-6-x-6-|
|-x-x-4-4-4-------------|
|-----------------------|

|-----------------------------------|
|-----------------------------------|
|-----------------------------------|
|-------11~-10~-8~-------11~-10~-8~-|
|-8-8-8------------8-8-8------------|
|-----------------------------------|
Tap to rate this tab
# A B C D E F G H I J K L M N O P Q R S T U V W X Y Z