Song name
# A B C D E F G H I J K L M N O P Q R S T U V W X Y Z

Casting Crowns - Until The Whole World Hears tab

-------------------------------------------------------------------------------
	     UNTIL THE WHOLE WORLD HEARS - Casting Crowns
-------------------------------------------------------------------------------
Tabbed by:  A.W. Helms
Email: awhelms@gmail.com

Tuning low to high A E A D G B E (7-string) 

I play a 7-string guitar with the low B tuned to A, so that's how I tabbed it.
You can play it on 6-string in standard tuning with a few minor changes (which are listed)

Chords Used (notes in parentheses can be added if playing on a 7-string as tuned above)
  F#   A#m  G#  D#m   C#   E#m
|-2----6----4----6----4----1----|
|-2----6----4----7----6----1----|
|-3----6----5----8----6----1----|
|-4----8----6----8----6----3----|
|-4----8----6----6----4----3----|
|-2----6----4---(6)--(4)---1----|
|---------------(6)--(4)--------|

7-string version ======================================================
Verse (play the (8)'s on the second verse (like a power chord A#5))
 (A#m)
|------------------------|------------------------|
|------------------------|------------------------|
|*-----------------------|------------------------|
|--------8-x-8-6-x-6-6-6-|--------8-x-8-6-x-6-6-6-|
|*(8)(8)-----------------|-(8)(8)-----------------|
|--6--6------------------|--6--6------------------|
|------------------------|------------------------|
  (C#)
|-------------------------------|-------------------------------|
|-------------------------------|-------------------------------|
|-------------------------------|------------------------------*|
|--------/11--11-11-10/11\10----|--------/11--11-11-10/11\10----|
|--4--4----------------------8--|--4--4----------------------8-*|
|--------/9----9-9---8/9\-8-----|--------/9----9-9---8/9\-8-----|
|--4--4----------------------8--|--4--4----------------------8--|
=======================================================================

6-string Version ======================================================
Verse (play the (8)'s on the second verse (like a power chord A#5))
 (A#m)
|------------------------|------------------------|
|------------------------|------------------------|
|*-----------------------|------------------------|
|--------8-x-8-6-x-6-6-6-|--------8-x-8-6-x-6-6-6-|
|*(8)(8)-----------------|-(8)(8)-----------------|
|--6--6------------------|--6--6------------------|

  (C#)
|-------------------------------|-------------------------------|
|-------------------------------|-------------------------------|
|-------------------------------|------------------------------*|
|--------/11--11-11-10/11\10----|--------/11--11-11-10/11\10----|
|--4--4----------------------8--|--4--4----------------------8-*|
|-------------------------------|-------------------------------|
=======================================================================


Pre-Chorus
F# - A#m - G# - D#m

F# - A#m - G# - G#

Chorus
C# - G# - A#m - F#

C# - G# - A#m - E#m

Verse 2
(First two measures of verse)
(Entire verse section)
(First three measures of verse)

Pre-Chorus 2

Chorus 2

Bridge
F# - A#m - C# - C#

F# - A#m - C# - C#

F# - C# - A#m - G#

F# - C# - A#m - G#

Chorus 3

Outro
F# - A#m - C# - C#

F# - A#m - last two measures of verse

F# - A#m - last two measures of verse

F#

(an acoustic guitar comes in as the rest fades out; it is playing the first part of the outro)
Tap to rate this tab
 
# A B C D E F G H I J K L M N O P Q R S T U V W X Y Z