Song name
# A B C D E F G H I J K L M N O P Q R S T U V W X Y Z

Casting Crowns - Until The Whole World Hears chords

Highlighted       Show chord diagrams
Until the Whole World Hears

INTRO/STANZA
            Bbm                          C#
e-----------------------------|------------------------------|
B-----------------------------|------------------------------|
G-----------------------------|-----6-5H6P5--------6-5H6P5---}REPEAT
D------8---6-6-6-----8--6-6-6-|------------------------------|
A-----------------------------|-4-4---------8--4-4---------8-|
E-6-6-------------6-6---------|------------------------------|

Bbm                                                              C#
Lord I want to feel your heart and see the world through your eyes
Bbm 								C#
I want to be your hands and feet I want to live a life that leads

REFRAIN
Bbm               C#
Ready yourselves, ready yourselves
    G#                                 Bbm
Let us shine the light of Jesus in the darkest night
Bbm                C#
Ready yourselves, ready yourselves
         G#                                 G#
May the powers of darkness tremble as our praises rise

Chorus:
    C#                                    G#
Until the whole world hears Lord we are calling out
Bbm                              F#
Lifting up Your name for all to hear the sound
       C#                       G#
Like voices in the wilderness we're crying out
       Bbm
as the day draws near
      F#             G#                (Bbm)
we'll sing until the whole world hears
            Bbm                          C#
e-----------------------------|------------------------------|
B-----------------------------|------------------------------|
G-----------------------------|-----6-5H6P5--------6-5H6P5---}REPEAT
D------8---6-6-6-----8--6-6-6-|------------------------------|
A-----------------------------|-4-4---------8--4-4---------8-|
E-6-6-------------6-6---------|------------------------------|

Lord let your sleeping giant arise
Catch the demons by surprise
Holy nation sanctified
Let this be our battle cry

chorus

we'll sing until the whole world hears
we'll sing until the whole world hears

BRIDGE:
Bbm
Want to be your hands and feet
C#
Want to be a life that leads
G#
To see you set the captive free
F#          G#
Until the whole world hears
Bbm                            C#
and I pray that they will see more of you and less of me
G#                                    G#(pause)
Lord I want my life to be the song You sing

REPEAT CHORUS

CODA:
       Bbm             G#          F#  G#
we'll sing until the whole world hears
       Bbm             G#          F#  G#
we'll sing until the whole world hears
       Bbm             G#          F#  G#
we'll sing until the whole world hears
       Bbm             G#          F#  G#
we'll sing until the whole world hears
       Bbm             G#          F#  G#
we'll sing until the whole world hears
       Bbm             G#          C#
we'll sing until the whole world hears
Tap to rate this tab
 
# A B C D E F G H I J K L M N O P Q R S T U V W X Y Z