Song name
# A B C D E F G H I J K L M N O P Q R S T U V W X Y Z

Casting Crowns - Who Am I tab

-------------------------------------------------------------------------------
			     SONG NAME - who am i                        
-------------------------------------------------------------------------------
Tabbed by:totim
Email:

Tuning:

piano

intro
e|-7--7-6-7--7-6-7--7-6-7-6---6--7--7-6-7--7-6-7--7-6-7--6------|
B|-7--7-7-7--7-7-7--7-7-7---9----7--7-7-7--7-7-7--7-7-7----9----|
G|--------------------------------------------------------------|
D|--------------------------------------------------------------|
A|--------------------------------------------------------------|
E|--------------------------------------------------------------|

guitar
e|--------------------------------------------------------------|
B|--------------------------------------------------------------|
G|---------6/8--6------------6/8--6------------6/8--6-----------|
D|-------7-7/9--7----------7-7/9--7----------7-7/9--7-----------|
A|--------------------------------------------------------------|
E|--------------------------------------------------------------|

************************************
Tap to rate this tab
 
# A B C D E F G H I J K L M N O P Q R S T U V W X Y Z