Song name
# A B C D E F G H I J K L M N O P Q R S T U V W X Y Z

Casting Crowns - Until The Whole World Hears tab

----------------------------------------------------------------------------
	        Until The Whole World Hears - Casting Crowns
----------------------------------------------------------------------------
Tabbed by: LiViNgTeStAmEnT
Email: chancelamb@hotmail.com

Tuning: Standard Tuning

Intro

   A#
e|-------------------------------------------------------------------------|
B|-------------------------------------------------------------------------|
G|-------------------------------------------------------------------------|
D|------8-X-8-6-X-6h8------8-X-8-6-X-6h8-----------------------------------|
A|-1-1/----------------1-1-------------------------------------------------|
E|-------------------------------------------------------------------------|
   C#
e|-------------------------------------------------------------------------|
B|-------------------------------------------------------------------------|
G|-------------------------------------------------------------------------|
D|-6-6-/11-11-11-10br----6-6-/11-11-11-10br--------------------------------|
A|-4-4----------------8--4-4----------------8------------------------------|
E|-------------------------------------------------------------------------|

Verse 1

   A#
e|-------------------------------------------------------------------------|
B|-------------------------------------------------------------------------|
G|-------------------------------------------------------------------------|
D|------8-X-8-6-X-6h8------8-X-8-6-X-6h8-----------------------------------|
A|-1-1/----------------1-1-------------------------------------------------|
E|-------------------------------------------------------------------------|
   C#
e|-------------------------------------------------------------------------|
B|-------------------------------------------------------------------------|
G|-------------------------------------------------------------------------|
D|-6-6-/11-11-11-10br----6-6-/11-11-11-10br--------------------------------|
A|-4-4----------------8--4-4----------------8------------------------------|
E|-------------------------------------------------------------------------|

   A#
e|-------------------------------------------------------------------------|
B|-------------------------------------------------------------------------|
G|-------------------------------------------------------------------------|
D|------8-X-8-6-X-6h8------8-X-8-6-X-6h8-----------------------------------|
A|-1-1/----------------1-1-------------------------------------------------|
E|-------------------------------------------------------------------------|
   C#
e|-------------------------------------------------------------------------|
B|-------------------------------------------------------------------------|
G|-------------------------------------------------------------------------|
D|-6-6-/11-11-11-10br----6-6-/11-11-11-10br--------------------------------|
A|-4-4----------------8--4-4----------------8------------------------------|
E|-------------------------------------------------------------------------|


Pre-Chorus

   F#   A#m  G#   D#   F#   A#m  G#   G#
e|-2----6----4----6----2----6----4----4------------------------------------|
B|-2----6----4----8----2----6----4----4------------------------------------|
G|-3----6----5----8----3----6----5----5------------------------------------|
D|-4----8----6----8----4----8----6----6------------------------------------|
A|-4----8----6----6----4----8----6----6------------------------------------|
E|-2----6----4---------2----6----4----4------------------------------------|

Chorus

   Until    Calling  Lifting  Hears    Voices   Crying   Day      Sing
   C#       G#       A#m      F#       C#       G#       A#m      F
e|-4--------4--------6--------2--------4--------4--------6--------1--------|
B|-6--------4--------6--------2--------6--------4--------6--------1--------|
G|-6--------5--------6--------3--------6--------5--------6--------2--------|
D|-6--------6--------8--------4--------6--------6--------8--------3--------|
A|-4--------6--------8--------4--------4--------6--------8--------3--------|
E|----------4--------6--------2-----------------4--------6--------1--------|

   A#
e|-------------------------------------------------------------------------|
B|-------------------------------------------------------------------------|
G|-------------------------------------------------------------------------|
D|------8-X-8-6-X-6h8------8-X-8-6-X-6h8-----------------------------------|
A|-1-1/----------------1-1-------------------------------------------------|
E|-------------------------------------------------------------------------|

Verse 2

   A#
e|-------------------------------------------------------------------------|
B|-------------------------------------------------------------------------|
G|-------------------------------------------------------------------------|
D|------8-X-8-6-X-6h8------8-X-8-6-X-6h8-----------------------------------|
A|-1-1/----------------1-1-------------------------------------------------|
E|-------------------------------------------------------------------------|
   C#
e|-------------------------------------------------------------------------|
B|-------------------------------------------------------------------------|
G|-------------------------------------------------------------------------|
D|-6-6-/11-11-11-10br----6-6-/11-11-11-10br--------------------------------|
A|-4-4----------------8--4-4----------------8------------------------------|
E|-------------------------------------------------------------------------|

   A#
e|-------------------------------------------------------------------------|
B|-------------------------------------------------------------------------|
G|-------------------------------------------------------------------------|
D|------8-X-8-6-X-6h8------8-X-8-6-X-6h8-----------------------------------|
A|-1-1/----------------1-1-------------------------------------------------|
E|-------------------------------------------------------------------------|
   C#
e|-------------------------------------------------------------------------|
B|-------------------------------------------------------------------------|
G|-------------------------------------------------------------------------|
D|-6-6-/11-11-11-10br------------------------------------------------------|
A|-4-4----------------8----------------------------------------------------|
E|-------------------------------------------------------------------------|

Pre-Chorus

   F#   A#m  G#   D#   F#   A#m  G#   G#
e|-2----6----4----6----2----6----4----4------------------------------------|
B|-2----6----4----8----2----6----4----4------------------------------------|
G|-3----6----5----8----3----6----5----5------------------------------------|
D|-4----8----6----8----4----8----6----6------------------------------------|
A|-4----8----6----6----4----8----6----6------------------------------------|
E|-2----6----4---------2----6----4----4------------------------------------|

Chorus

   Until    Calling  Lifting  Hears    Voices   Crying   Day      Sing
   C#       G#       A#m      F#       C#       G#       A#m      F
e|-4--------4--------6--------2--------4--------4--------6--------1--------|
B|-6--------4--------6--------2--------6--------4--------6--------1--------|
G|-6--------5--------6--------3--------6--------5--------6--------2--------|
D|-6--------6--------8--------4--------6--------6--------8--------3--------|
A|-4--------6--------8--------4--------4--------6--------8--------3--------|
E|----------4--------6--------2-----------------4--------6--------1--------|





      OOOOOH   OOOH     Sing
   F#      G#m    C#    C#
e|-2-------6------4-----4--------------------------------------------------|
B|-2-------6------6-----6--------------------------------------------------|
G|-3-------6------6-----6--------------------------------------------------|
D|-4-------8------6-----6--------------------------------------------------|
A|-4-------8------4-----4--------------------------------------------------|
E|-2-------6---------------------------------------------------------------|


      OOOOOH   OOOH     Sing
   F#      G#m    C#    C#
e|-2-------6------4-----4--------------------------------------------------|
B|-2-------6------6-----6--------------------------------------------------|
G|-3-------6------6-----6--------------------------------------------------|
D|-4-------8------6-----6--------------------------------------------------|
A|-4-------8------4-----4--------------------------------------------------|
E|-2-------6---------------------------------------------------------------|

Bridge
 I Wanna  I Wanna    See You   Until The
   F#       C#        A#m        G#
e|-2--------4---------6----------4-----------------------------------------|
B|-2--------6---------6----------4-----------------------------------------|
G|-3--------6---------6----------5-----------------------------------------|
D|-4--------6---------8----------6-----------------------------------------|
A|-4--------4---------8----------6-----------------------------------------|
E|-2------------------6----------4-----------------------------------------|

  And I   More of    Lord I     Song You'd
   F#       C#        A#m        G#
e|-2--------4---------6----------4-----------------------------------------|
B|-2--------6---------6----------4-----------------------------------------|
G|-3--------6---------6----------5-----------------------------------------|
D|-4--------6---------8----------6-----------------------------------------|
A|-4--------4---------8----------6-----------------------------------------|
E|-2------------------6----------4-----------------------------------------|

Chorus
   Until    Calling  Lifting  Hears    Voices   Crying   Day      Sing
   C#       G#       A#m      F#       C#       G#       A#m      F
e|-4--------4--------6--------2--------4--------4--------6--------1--------|
B|-6--------4--------6--------2--------6--------4--------6--------1--------|
G|-6--------5--------6--------3--------6--------5--------6--------2--------|
D|-6--------6--------8--------4--------6--------6--------8--------3--------|
A|-4--------6--------8--------4--------4--------6--------8--------3--------|
E|----------4--------6--------2-----------------4--------6--------1--------|

      OOOOOH   OOOH     Sing
   F#      G#m    C#    C#
e|-2-------6------4-----4--------------------------------------------------|
B|-2-------6------6-----6--------------------------------------------------|
G|-3-------6------6-----6--------------------------------------------------|
D|-4-------8------6-----6--------------------------------------------------|
A|-4-------8------4-----4--------------------------------------------------|
E|-2-------6---------------------------------------------------------------|


      OOOOOH   OOOH     Sing
   F#      G#m    C#    C#
e|-2-------6------4-----4--------------------------------------------------|
B|-2-------6------6-----6--------------------------------------------------|
G|-3-------6------6-----6--------------------------------------------------|
D|-4-------8------6-----6--------------------------------------------------|
A|-4-------8------4-----4--------------------------------------------------|
E|-2-------6---------------------------------------------------------------|

 






     OOOOOH   OOOH     Sing
   F#      G#m    C#    C#
e|-2-------6------4-----4--------------------------------------------------|
B|-2-------6------6-----6--------------------------------------------------|
G|-3-------6------6-----6--------------------------------------------------|
D|-4-------8------6-----6--------------------------------------------------|
A|-4-------8------4-----4--------------------------------------------------|
E|-2-------6---------------------------------------------------------------|


      OOOOOH   OOOH     Sing
   F#      G#m    C#    C#
e|-2-------6------4-----4--------------------------------------------------|
B|-2-------6------6-----6--------------------------------------------------|
G|-3-------6------6-----6--------------------------------------------------|
D|-4-------8------6-----6--------------------------------------------------|
A|-4-------8------4-----4--------------------------------------------------|
E|-2-------6---------------------------------------------------------------|

	
************************************

| /   slide up
| \   slide down
| h   hammer-on
| p   pull-off
| ~   vibrato
| +   harmonic
| x   Mute note
| b   Bend
| pb  Pre-bend
| br  Bend release
| pbr Pre-bend release
| brb Bend release bend

************************************
Tap to rate this tab
 
# A B C D E F G H I J K L M N O P Q R S T U V W X Y Z