Casting Crowns - Your Love Is Extravagant tab

Song Title: You love is extravagant
Artist: Casting Crowns
Tabbed by: Emmanuel A. Castillo
E-add: ayoko_pusa@yahoo.com

Intro:E-AC#m-B
e--9-11-12--11-9--------------------------|
B---------------12-10-9-10--9-7----7h9---|
G---------------------------------9-------|
D-----------------------------------------|
A-----------------------------------------|
E-----------------------------------------|

e--9-11-12--11-9-----------------------------|
B---------------12-10-9-10--9-7----7h9-9p7--|
G---------------------------------9---------9|
D--------------------------------------------|
A--------------------------------------------|
E--------------------------------------------|

Verse:
E	A   C#m-B			E-A   C#m-B
Your love 		is extravagant
E		A   C#m-B	E   A   C#m-B
Your friendship		 is intimate
E		A
I feel like I am moving to the
C#m		B
rhythm of Your grace
		  E       A
Your fragrance is intoxicating
	C#m	B
in our secret place
E	A   C#m-B	       E-A   C#m-B
Your love          is extravagant




Chorus:
B			C#m	 A
Spread wide in the arms of Christ
		           B
its the love that covers sin
B		     C#m	 A
No greater love have I ever known
			B
You considered me a friend
					INTRO
You capture my heart again



Tap to rate this tab
 
# A B C D E F G H I J K L M N O P Q R S T U V W X Y Z