Casting Crowns - Until The Whole World Hears tab

Hey, I've decided to upload my version of the tab for this song, as I'm
quite a picky guitarist and needed a tab I could follow for playing this at 
my church's Vacation Bible School service! :D I hope this tab helps other 
guitarists out and that you can learn this song for God to use you in 
whatever way He sees fit. God Bless :D



Throughout the verses and ending Interlude, I have chosen to label the Lead 
Guitar and Rhythm Guitar as Fig. A and Fig. B for the convenience of viewing 
and learning the parts. Fig. A and Fig. B are played (in my eyes) as follows:


Lead                                       Rhythm
Fig. A                                     Fig. A
|----------------------------------------| |-6-6----|
|----------------------------------------| |-6-6----|
|------------------------------------x2--| |-6-6----|
|----------------------------------------| |-8-8----|
|---------(11)-13-xxx-13-x-11-11-11-11---| |-8-8----|
|-xxx6-6---------------------------------| |-6-6----|

Fig. B                                     Fig. A
|----------------------------------------| |-4-4----|
|----------------------------------------| |-6-6----|
|------------------------------------x2--| |-6-6----|
|-11--11--11--11-11-10h11p10-------------| |-6-6----|
|-11--11---------------------8-----------| |-4-4----|
|-9---9----------------------------------| |-X-X----|

___________________________________________________________________
This song starts off with a pretty sweet drum beat, and the lead guitar will 
rest for 2 4/4 measures while the drummer is rocking it out. The Rhythm 
Guitarist will rest for these two measures, as well as an additional two 
measures while the Lead Guitarist plays Fig. A for two measures, Then the 
Rhythm guitarist will enter on Fig. B. This all sounds (and looks) very 
confusing, but if you listen closely to the song, you'll be rocking out 
before you know it! :D


(0:05-0:18)
Intro:
Lead Fig. A x2                             Rhythm rest x2
Lead Fig. B x2                             Rhythm Fig. B x2

(0:18-0:42)
Verse:
Lead Fig. A x2                             Rhythm Fig. A x1 (Rest x1)
Lead Fig. B x2                             Rhythm Fig. B x2       
Lead Fig. A x2                             Rhythm Fig. A x1 (Rest x1)
Lead Fig. B x2                             Rhythm Fig. B x2

(0:42-1:07)
Pre-Chorus:
|-2~---|1~---|4~---|6~---||2~---|1~---|4~-------|
|-2~---|1~---|4~---|6~---||2~---|2~---|4~-------|
|-3~---|3~---|5~---|8~---||3~---|3~---|5~-------|
|-4~---|3~---|6~---|8~---||4~---|3~---|6~-------|
|-4~---|1~---|6~---|6~---||4~---|1~---|6~-------|
|-2~---|X----|4~---|X----||2~---|X----|4~-------|
  Gb    Bb    Ab   Eb      Gb   Bb     Ab   

(1:07-1:31)
Chorus:
|-4--4--1--2-|
|-6--4--1--2-|
|-6--5--3--3-|x2
|-6--6--3--4-|
|-4--6--1--4-|
|-X--4--X--2|
  Db Ab Bb Gb 

(1:31-1:37)
Interlude:
Lead Fig. A x2                             Rhythm Fig. A x2

(1:37-1:58)
Verse:
Lead Fig. A x2                             Rhythm Fig. A x2
Lead Fig. B x2                             Rhythm Fig. B x2
Lead Fig. A x2                             Rhythm Fig. A x2
Lead Fig. B x1                             Rhythm Fig. B x1

(1:58-2:23)
Pre-Chorus:
|-2~---|1~---|4~---|6~---||2~---|1~---|4~-------|
|-2~---|1~---|4~---|6~---||2~---|2~---|4~-------|
|-3~---|3~---|5~---|8~---||3~---|3~---|5~-------|
|-4~---|3~---|6~---|8~---||4~---|3~---|6~-------|
|-4~---|1~---|6~---|6~---||4~---|1~---|6~-------|
|-2~---|X----|4~---|X----||2~---|X----|4~-------|
  Gb    Bb    Ab   Eb      Gb   Bb     Ab   

(2:23-2:47)
Chorus:
|-4---4---1---2--||-4---4---1---1--------|
|-6---4---2---2--||-6---4---2---1--------|
|-6---5---3---3--||-6---5---3---2--------|
|-6---6---3---4--||-6---6---3---3--------|
|-4---6---1---4--||-4---6---1---3--------|
|-X---4---X---2--||-X---4---X---1--------|
  Db  Ab  Bb  Gb    Db  Ab  Bb  F

(2:47-3:11)
Post-Chorus:
|-2---1---4-------2---1---4-----------------------|
|-2---2---6-------2---2---6-----------------------|
|-3---3---6-------3---3---6-----------------------|
|-4---3---6-------4---3---6-----------------------|
|-4---1---4-------4---1---4-----------------------|
|-2---X---X-------2---X---X-----------------------|
  Gb  Bb  Db      Gb  Bb  Db

(3:11-3:36)
Bridge:
Rhythm 
|-2-2-xxx-xx-22-2--4-4-xxx-xx-44--1-1-xxx-xx-11-1--4-4-xxx-xx-44-4-----|
|-2-2-xxx-xx-22-2--6-6-xxx-xx-66--2-2-xxx-xx-22-2--4-4-xxx-xx-44-4-----|
|-3-3-xxx-xx-33-3--6-6-xxx-xx-66--3-3-xxx-xx-33-3--5-5-xxx-xx-55-5-----|
|-4-4-xxx-xx-44-4--6-6-xxx-xx-66--3-3-xxx-xx-33-3--6-6-xxx-xx-66-6-----|x2
|-4-4-xxx-xx-44-4--4-4-xxx-xx-44--1-1-xxx-xx-11-1--6-6-xxx-xx-66-6-----|
|-2-2-xxx-xx-22-2--X-X-xxx-xx-XX--X-X-xxx-xx-XX-X--4-4-xxx-xx-44-4-----|
  Gb               Db             Bb               Ab
Lead (Strummed as 16th notes)
|--------------|--------------|--------------|-----------------|
|--------------|--------------|--------------|-----------------|
|-11----/15----|-10----/13----|-10----/15----|-13----/17-------|
|-x-(x8)/x-(x8)|-x(x8)/x-(x8)|-x-(x8)/x-(x8)|-x-(x8)/x-(x8)---|x2
|-9-----/13----|-8-----/11----|-8-----/13----|-11----/15-------|
|--------------|--------------|--------------|-----------------|
  Gb     Bb      F      Ab      F      Bb      Ab     C

(3:36-4:00)
Chorus: 
|-4~--4--1--2---||-4--4--1--1--|
|-6~--4--2--2---||-6--4--2--1--|
|-6~--5--3--3---||-6--5--3--2--|
|-6~--6--3--4---||-6--6--3--3--|
|-4~--6--1--4---||-4--6--1--3--|
|-X~--4--X--2---||-X--4--X--1--|
  Db Ab Bb Gb     Db Ab Bb F

(4:00-4:12)
Interlude: 
|-22222222-11111111-4444444444444444--------|
|-22222222-22222222-6666666666666666--------|
|-33333333-33333333-6666666666666666--------|
|-44444444-33333333-6666666666666666--------|
|-44444444-11111111-4444444444444444--------|
|-22222222-XXXXXXXX-XXXXXXXXXXXXXXXX--------|
  Gb       Bb       Db

(4:12-4:36)
Outro:
Lead                                            Rhythm
Fig. A x2                                       Cont. Interlude Pattern x8
Fig. B x2
Fig. A x2
Fig. B x2

(4:36~)
End
|-2~~---|
|-2~~---|
|-3~~---|
|-4~~---|
|-4~~---|
|-2~~---|
  Gb
Tap to rate this tab
 
# A B C D E F G H I J K L M N O P Q R S T U V W X Y Z