Song name
# A B C D E F G H I J K L M N O P Q R S T U V W X Y Z

Casting Crowns - Blessed Redeemer tab

-------------------------------------------------------------------------------
Blessed Redeemer by Casting Crowns
-------------------------------------------------------------------------------
Album:Until the Whole World Hears
Tabbed by:quesadilla1118
Email:caseymsims@gmail.com

This is a great song song that was originally a hymn written in the early 1900's, but 
casting crowns made it more popular. So if you like it, please rate or if there are any 
mistakes, leave a comment or e=mail me. Thanks!

Tuning:EADGBe (standard)

      Em                      G              D
e|----0----0--0-----0----0-----3----3----3---2--|
B|----0----0--0-----0----0-----3----3----3---3--|
G|----0----0--0-----0----0-----0----0----0---2--|
D|----2----2--2-----2----2-----0----0----0---0--|
A|----2----2--2-----2----2-----2----2----2------|
E|----0----0--0-----0----0-----3----3----3------|
   1. Up Cal-v'ry's moun-tain one dread-ful morn,
   2. Fa'ther, for-give them! thus did He   pray,
   3. O  how  I  love  Him,  Sav-ior  and   Friend,

                      Am                  Em
e|---2------2----2---0--0----0---0--0-----0---|
B|---3------3----3---1--1----1---1--1-----0---|
G|---2------2----2---2--2----2---2--2-----0---|
D|---0------0----0---2--2----2---2--2-----2---|
A|-------------------0--0----0---0--0-----2---|
E|----------------------------------------0---|
1. Walked Christ my Sav-ior, wea-ry and  worn;
2. E'en while His life-blood flowed fast a-way;
3. How  can  my  prais - es  ev -er find end!


                G                         D
e|--0--0---0----3---3-----3---3--3-------2-----|
B|--0--0---0----3---3-----3---3--3-------3-----|
G|--0--0---0----0---0-----0---0--0-------2-----|
D|--2--2---2----0---0-----0---0--0-------0-----|
A|--2--2---2----2---2-----2---2--2-------------|
E|--0--0---0----3---3-----3---3--3-------------|
1. Fac-ing for sin-ners death on the    cross,
2. Pray-ing for sin-ners while in such  woe
3. Thry years un-num-bered on heav-en's shore,


                     Am                     Cadd9
e|--2---2---2-------0----0-----0---0--0-0----3--|
B|--3---3---3-------1----1-----1---1--1-1----3--|
G|--2---2---2-------2----2-----2---2--2-2----0--|
D|--0---0---0-------2----2-----2---2--2-2----2--|
A|------------------0----0-----0---0--0-0----3--|
E|-------------------------------------------0--|
1. That He might   save them  from end-less loss.
2. No one but      Je-sus     ev-er loved   so.
3. My tongue shall praise Him for-ev-er -   more.


Chorus

                 G                     D
e|---3---3--3---3---3----3---3-----3---2---2--|
B|---3---3--3---3---3----3---3-----3---3---3--|
G|---0---0--0---0---0----0---0-----0---2---2--|
D|---2---2--0---0---0----0---0-----0---0---0--|
A|---3---3--2---2---2----2---2-----2----------|
E|---0---0--3---3---3----3---3-----3----------|
----------------------------------------------|   Bless-ed Re-deem-er! Pre-cious Re-deem-er!

                Em                      Cadd9
e|---2----2--2--0---0--0------0-0-0-----3-------|
B|---3----3--3--0---0--0------0-0-0-----3-------|
G|---2----2--2--0---0--0------0-0-0-----0-------|
D|---0----0--0--2---2--2------2-2-2-----2-------|
A|--------------2---2--2------2-2-2-----3-------|
E|--------------0---0--0------0-0-0-----0-------|
   Seems now I see Him on   Calvary's  tree;

                 G                       D
e|---3---3---3---3----3-----3---3---3-----2----2--|
B|---3---3---3---3----3-----3---3---3-----3----3--|
G|---0---0---0---0----0-----0---0---0-----2----2--|
D|---2---2---2---0----0-----0---0---0-----0----0--|
A|---3---3---3---2----2-----2---2---2-------------|
E|---0---0---0---3----3-----3---3---3-------------|
   Wound-ed and bleed-ing, for sin-ners plead-ing

                  Em                 Cadd9   G      D
e|---2---2---2----0---0---0---0--0---3-------3--3---2--2-|
B|---3---3---3----0---0---0---0--0---3-------3--3---3--3-|
G|---2---2---2----0---0---0---0--0---0-------0--0---2--2-|
D|---0---0---0----2---2---2---2--2---2-------0--0---0--0-|
A|----------------2---2---2---2--2---3-------2--2--------|
E|----------------0---0---0---0--0---0-------3--3--------|
   Blind and un-heed-ing dy-ing for me!
Tap to rate this tab
 
# A B C D E F G H I J K L M N O P Q R S T U V W X Y Z