Song name
# A B C D E F G H I J K L M N O P Q R S T U V W X Y Z

Casting Crowns - Your Love Is Extravagent tab

INTRO:

--9h11h12--11--9-------------------------|
------------------12--10--910--9--7-----|
-----------------------------------------|
-----------------------------------------|
-----------------------------------------|
-----------------------------------------|

--9h11h12--11--9-------------------------|
------------------12--10--910--9--7-----|
-----------------------------------------|
-----------------------------------------|
-----------------------------------------|
-----------------------------------------|

--7--9--7--------------------------------|
-----------9-9-------------------------|
-----------------------------------------|
-----------------------------------------|
-----------------------------------------|
-----------------------------------------|

Both other tabs worked for me, but i just took it a lil further, and made it a lil more 
(Feel free to let me no if there is anything wrong with it)
Tap to rate this tab
# A B C D E F G H I J K L M N O P Q R S T U V W X Y Z