Song name
# A B C D E F G H I J K L M N O P Q R S T U V W X Y Z

Casting Pearls - Weighted tab

I learned this version from Bryan himself so i know its right and its in Drop-D.( might 
to throw a few mutes in)

E----------------------------------------|
B----------------------------------------|
G----------7777--------------------------|
D----------7777---9---11^-777-55---------|
A-----o----5555---9-------777-55---------|
E-----------------9-------77--55---------|
                 (intro 5x's )
E----------------------------------------------------------|
B----------------------------------------------------------|
G----------------------------------------------------------|
D---77777777-----------------22222222----------------------|
A---5555555555555555/9999999900000000----------------------|
E-----------55555555/99999999------------------------------|
                (part 2) 4x's palm muted
E----------------------------------------------------------------------|
B----------------------------------------------------------------------|
G----777777777------------------------222222222------------------------|
D----777777777-555555555/-9999999999--222222222------------------------|
A--o-555555555-555555555/-9999999999--000000000------------------------|
E--------------555555555/-9999999999-----------------------------------|
               (Chorus)4x's
E----------------------------------------|
B----------------------------------------|
G----------7777--------------------------|
D----------7777---9---11^-777-55---------|
A-----o----5555---9-------777-55---------|
E-----------------9-------77--55---------|
               (2 x's)

E----------------------------------------|
B----------------------------------------|
G----------------------------------------|
D---77777777-----------------22222222----|
A---5555555555555555/9999999900000000----|
E-----------55555555/99999999------------|
          (part 2) 4x's palm muted
E----------------------------------------------------------------------|
B----------------------------------------------------------------------|
G----777777777------------------------222222222------------------------|
D----777777777-555555555/-9999999999--222222222------------------------|
A--o-555555555-555555555/-9999999999--000000000------------------------|
E--------------555555555/-9999999999-----------------------------------|
               (Chorus)
E------14------14-15-14--14-----------9-10----------|
B--------15-----------------15-----10---------------|
G----------14------------------14-------------------|
D---------------------------------------------------|
A---------------------------------------------------|
E---------------------------------------------------|
               (solo type thing)
E----------------------------------------|
B----------------------------------------|
G----------------------------------------|
D---77777777-----------------22222222----|
A---5555555555555555/9999999900000000----|
E-----------55555555/99999999------------|
          (part 2) 4x's palm muted
E-----------------------------------------------------------------------|
B-----------------------------------------------------------------------|
G----7-let-ring------------------------222222222------------------------|
D----7-555555555/-9999999999--222222222---------------------------------|
A--o-5-555555555/-9999999999--000000000---------------------------------|
E--------------555555555/-9999999999------------------------------------|
               (Chorus)4x's
E----------------------------------------|----------------------------------|
B----------------------------------------|----------------------------------|
G----------7777--------------------------|-----7777-------------------------|
D----------7777---9---11^-777-55---------|-----7777--9--11^---9-------------|
A-----o----5555---9-------777-55---------|--o--5555--9------7-9-5-----------|
E-----------------9-------77--55---------|-----------9------7-7-5-let-ring--|
               (3 x's)                              (end on)
Tap to rate this tab
 
# A B C D E F G H I J K L M N O P Q R S T U V W X Y Z